Oops, an error
Loading. Please wait.

Mardy Bum Bass Tab

version 2
version 2

Interactive

2,835 views 3 this week
no commentswrite comment
1 2 3 4 5
please rate
add to favorites
launch autoscroll
font size
0
reset
guitar tuner
Autoscroll
slow
fast
+/-
esc
set tempo
stop
Help us to improve Ultimate-Guitar.com Take our survey!
×
Author
Mardy Bum Bass Tab

Artist: Arctic Monkeys
Track: Mardy Bum

Tabbed by Tiago Guerra tiagoguerra.fcp@iol.pt

Verse
G|------------------------------------------------------|
D|------------------------------------------------------|
A|5-5-555-9-12-9-9-999-10-9-10-10-10-9999-10-7-7-777----|
E|---------------------------------------------------55-|

G|------------------------------------------------------|
D|------------------------------------------------------|
A|5-5-555-9-12-9-9-999-10-9-10-10-10-9999-10-7-7-777----|
E|---------------------------------------------------55\|

G|------------------------------------------------------|
D|------------------------------------------------------|
A|----------------------------------------------0-3-4-5-|
E|------------------------------------------------------|

G|------------------------------------------------------|
D|------------------------------------------------------|
A|5-5-555-9-12-9-9-999-10-9-10-10-10-9999-10-7-7-777----|
E|---------------------------------------------------55-|

Chorus
G|--------------------------|
D|--------------------------|
A|--------9-9-7r--------9-7-|
E|3---5-----------7-7-7-----| x2

G|--------|
D|--------|
A|--------|
E|3---5---|

Verse
G|------------------------------------------------------|
D|------------------------------------------------------|
A|5-5-555-9-12-9-9-999-10-9-10-10-10-9999-10-7-7-777----|
E|---------------------------------------------------55-| x3

Chorus
G|--------------------------|
D|--------------------------|
A|--------9-9-7r--------9-7-|
E|3---5-----------7-7-7-----|

G|--------|
D|--------|
A|--------|
E|3---5---|





Bridge
G|--------------------------------|
D|--------------------------------|
A|--------------------------2-5-2-|
E|--------------------------------| x3

G|--------------------------------|
D|--------------------------------|
A|--------------------------------|
E|----------------3-3-3-3-5-5-5-5-|

Verse
G|------------------------------------------------------|
D|------------------------------------------------------|
A|5-5-555-9-12-9-9-999-10-9-10-10-10-9999-10-7-7-777----|
E|---------------------------------------------------55-| x2

End
G|--------------------------|
D|--------------------------|
A|--------9---7---------9-7-|
E|3---5-----------7---------|

G|--------------------------|
D|--------------------------|
A|--------9---7-------------|
E|3---5-----------7---------|

G|------------|
D|------------|
A|--------5---|
E|3---5-------|

I’m not sure if it is the right tab but it sounds good

E-mail me with the subject mardy bum bass tab, for any corrections
Suggest correction
Give kudos to tab author, rate the tab!
1 2 3 4 5
comments
print report bad tab
guest
You may want to rate the tab now too:
select rating
Wanna post a correction for this tab? Suggest correction