Oops, an error
Loading. Please wait.

Mardy Bum Bass Tab

version 4
version 4
3,951 views 1 this week
no commentswrite comment
1 2 3 4 5
2 more votes to show rating
add to favorites
launch autoscroll
font size
0
reset
guitar tuner
Autoscroll
slow
fast
+/-
esc
set tempo
stop
Help us to improve Ultimate-Guitar.com Take our survey!
×
Difficulty
intermediate
Arctic Monkeys - Mardy Bum

Bass Tab




Intro
G ----------------|----------------|
D ------------4-7-|4---4--4-4-45-4-|
A 5---5--5-5-5----|----------------|
E ----------------|----------------|

G ----------------|----------------|
D 5---5--4-4-44-5-|----------------|
A ----------------|7---7--7-7-70-0-|
E ----------------|----------------|

G ----------------|----------------|
D ------------4-7-|4---4--4-4-45-4-|
A 5---5--5-5-5----|----------------|
E ----------------|----------------|

G ----------------|----------------|
D 5---5--4-4-44-5-|----------------|
A ----------------|7---7--7-7-70-0-|
E ----------------|----------------|




Verse 1
G ----------------|----------------|
D ----------------|----------------|
A 5---------------|----------------|
E ----------------|----------------|

G ----------------|----------------|
D ----------------|----------------|
A ----------------|----------------|
E ----------------|----------0-2-4-|

G ----------------|----------------|
D ------------4-7-|4---4--4-4-45-4-|
A 5---5--5-5-5----|----------------|
E ----------------|----------------|

G ----------------|----------------|
D 5---5--4-4-44-5-|----------------|
A ----------------|7---7--7-7-70-0-|
E ----------------|----------------|




Chorus 
G ----------------|----------------|
D ----------------|----------------|
A ----------------|----------------|
E 3---------------|5---------------|

G ----------------|----------------|
D ----------------|----------------|
A 5--5------------|2--2--2---------|
E ------5---------|----------------|

G ----------------|----------------|
D ----------------|----------------|
A ----------------|----------------|
E 3---------------|5---------------|

G ----------------|----------------|
D ----------------|----------------|
A 5--5------------|2--2--2---------|
E ------5---------|----------------|

G ----------------|----------------|
D ----------------|----------------|
A ----------------|----------------|
E 3---------------|5---------------|




Verse 2
G ----------------|----------------|
D ------------4-7-|4---4--4-4-45-4-|
A 5---5--5-5-5----|----------------|
E ----------------|----------------|

G ----------------|----------------|
D 5---5--4-4-44-5-|----------------|
A ----------------|7---7--7-7-70-0-|
E ----------------|----------------|

G ----------------|----------------|
D ------------4-7-|4---4--4-4-45-4-|
A 5---5--5-5-5----|----------------|
E ----------------|----------------|

G ----------------|----------------|
D 5---5--4-4-44-5-|----------------|
A ----------------|7---7--7-7-70-0-|
E ----------------|----------------|

G ----------------|----------------|
D ------------4-7-|4---4--4-4-45-4-|
A 5---5--5-5-5----|----------------|
E ----------------|----------------|

G ----------------|----------------|
D 5---5--4-4-44-5-|----------------|
A ----------------|7---7--7-7-70-0-|
E ----------------|----------------|




Chorus 
G ----------------|----------------|
D ----------------|----------------|
A ----------------|----------------|
E 3---------------|5---------------|

G ----------------|----------------|
D ----------------|----------------|
A 5--5------------|2--2--2---------|
E ------5---------|----------------|

G ----------------|----------------|
D ----------------|----------------|
A ----------------|----------------|
E 3---------------|5---------------|

G ----------------|----------------|
D ----------------|----------------|
A 5--5------------|2--2--2---------|
E ------5---------|----------------|

G ----------------|----------------|
D ----------------|----------------|
A ----------------|----------------|
E 3---------------|5---------------|




Bridge (Sorry I was late...)
G ----------------|----------------|
D ----------------|----------------|
A ----------------|----------------|
E 2-2-2-2-2-2-2-2-|3-3-3-3-3-3-3-3-|

G ----------------|----------------|
D ----------------|----------------|
A ----------------|----------------|
E 2-2-2-2-2-2-2-2-|3-3-3-3-3-3-3-3-|

G ----------------|----------------|
D ----------------|----------------|
A ----------------|----------------|
E 2-2-2-2-2-2-2-2-|3-3-3-3-3-3-3-3-|

G ----------------|----------------|
D ----------------|----------------|
A ----------------|----------------|
E 2-2-2-2-2-2-2-2-|3---3---5---5---|




Verse 3
G ----------------|----------------|
D ------------4-7-|4---4--4-4-45-4-|
A 5---5--5-5-5----|----------------|
E ----------------|----------------|

G ----------------|----------------|
D 5---5--4-4-44-5-|----------------|
A ----------------|7---7--7-7-70-0-|
E ----------------|----------------|

G ----------------|----------------|
D ------------4-7-|4---4--4-4-45-4-|
A 5---5--5-5-5----|----------------|
E ----------------|----------------|

G ----------------|----------------|
D 5---5--4-4-44-5-|----------------|
A ----------------|7---7--7-7-70-0-|
E ----------------|----------------|



Outro
G ----------------|----------------|
D ----------------|----------------|
A ----------------|----------------|
E 3---------------|5---------------|

G ----------------|----------------|
D ----------------|----------------|
A 5-------0-------|2-------2-------|
E ----------------|------------1---|

G ----------------|----------------|
D ----------------|----------------|
A ----------------|----------------|
E 3---------------|5---------------|

G ----------------|----------------|
D ----------------|----------------|
A 5-------0-------|2---------------|
E ----------------|----------------|

G ----------------|----------------|
D ----------------|----------------|
A ----------------|----------------|
E ----------------|----------------|

G ----------------|----------------|
D ----------------|----------------|
A ----------------|----------------|
E 3---------------|5---------------|

G ----------------|
D ----------------|
A 5---------------|
E ----------------|
Suggest correction
Give kudos to tab author, rate the tab!
1 2 3 4 5
comments
print report bad tab
guest
You may want to rate the tab now too:
select rating
Wanna post a correction for this tab? Suggest correction