Oops, an error
Loading. Please wait.

Mardy Bum Bass Tab

version 5
version 5
63,627 views 78 this week
1 commentread comment
1 2 3 4 5
x 31
add to favorites
launch autoscroll
font size
0
reset
guitar tuner
Autoscroll
slow
fast
+/-
esc
set tempo
stop
Help us to improve Ultimate-Guitar.com Take our survey!
×
Author
Difficulty
novice
Arctic Monkeys – Mardy Bum
Tuning: Standard (EADG)

[Intro] (Bass)
     W                 W                 W                 W
G|-----------------|-----------------|-----------------|-----------------|
D|-----------------|-----------------|-----------------|-----------------|
A|-----------------|-----------------|-----------------|-----------------|
E|-----------------|-----------------|-----------------|-----------------|

    E.  S E  S E  S S S E  E     E.  S E  S E  S S S  E  E
G|----------------------------|-----------------------------|
D|----------------------4--7--|-----------------------------|
A|--5-----5----5--5---5-------|--9-----9----9--9---9-10--9--|
E|----------------------------|-----------------------------|

     E.  S  E  S E  S S S E   E     E.  S E  S E  S S S E  E
G|-------------------------------|----------------------------|
D|-------------------------------|----------------------------|
A|--10-----10----9--9---9-9--10--|--7-----7----7--7---7-0--0--|
E|-------------------------------|----------------------------|

    E.  S E  S E  S S S E  E     E.  S E  S E  S S S  E  E
G|----------------------------|-----------------------------|
D|----------------------4--7--|-----------------------------|
A|--5-----5----5--5---5-------|--9-----9----9--9---9-10--9--|
E|----------------------------|-----------------------------|

     E.  S  E  S E  S S S E   E     E.  S E  S E  S S S E  E
G|-------------------------------|----------------------------|
D|-------------------------------|----------------------------|
A|--10-----10----9--9---9-9--10--|--7-----7----7--7---7-0--0--|
E|-------------------------------|----------------------------|

[Verse 1] (Bass)
    H.           Q       W
G|--------------------|-------------------|
D|--------------------|-------------------|
A|--5-----------------|-------------------|
E|--------------------|-------------------|

    W                   H        E  E  E  E
G|-------------------|-----------------------|
D|-------------------|-----------------------|
A|-------------------|--------------0--2--4--|
E|-------------------|-----------------------|

    E.  S E  S E  S S S E  E     E.  S E  S E  S S S  E  E
G|----------------------------|-----------------------------|
D|----------------------4--7--|-----------------------------|
A|--5-----5----5--5---5-------|--9-----9----9--9---9-10--9--|
E|----------------------------|-----------------------------|

     E.  S  E  S E  S S S E   E     E.  S E  S E  S S S E  E
G|-------------------------------|----------------------------|
D|-------------------------------|----------------------------|
A|--10-----10----9--9---9-9--10--|--7-----7----7--7---7-0--0--|
E|-------------------------------|----------------------------|

[Chorus] (Bass)
    H.           Q       H.           Q
G|--------------------|--------------------|
D|--------------------|--------------------|
A|--------------------|--------------------|
E|--3-----------------|--5-----------------|

    E  S E  S H        E     E  S E  S H        E
G|------------------------|------------------------|
D|------------------------|------------------------|
A|--5----5----------------|--2----2----2-----------|
E|------------5-----------|------------------------|

    H.           Q       H.           Q
G|--------------------|--------------------|
D|--------------------|--------------------|
A|--------------------|--------------------|
E|--3-----------------|--5-----------------|

    E  S E  S H        E     E  S E  S H        E
G|------------------------|------------------------|
D|------------------------|------------------------|
A|--5----5----------------|--2----2----2-----------|
E|------------5-----------|------------------------|

    H.           Q       H.           Q
G|--------------------|--------------------|
D|--------------------|--------------------|
A|--------------------|--------------------|
E|--3-----------------|--5-----------------|

[Verse 2] (Bass)
// just the same as in Verse 1

[Chorus] (Bass)
// just the same as in Chorus

[Pre-Solo] (Bass)
    S. T S. T S. T S. T S. T S. T S. T S. T
G|------------------------------------------|
D|------------------------------------------|
A|------------------------------------------|
E|--2----2----2----2----2----2----2----2----|

    S. T S. T S. T S. T S. T S. T S. T S. T
G|------------------------------------------|
D|------------------------------------------|
A|------------------------------------------|
E|--3----3----3----3----3----3----3----3----| repeat x3

    S. T S. T S. T S. T S. T S. T S. T S. T    Q    Q    Q    Q
G|------------------------------------------|----------------------|
D|------------------------------------------|----------------------|
A|------------------------------------------|----------------------|
E|--2----2----2----2----2----2----2----2----|--3----3----5----5----|

[Solo] (Bass)
    E.  S E  S E  S S S E  E     E.  S E  S E  S S S  E  E
G|----------------------------|-----------------------------|
D|----------------------4--7--|-----------------------------|
A|--5-----5----5--5---5-------|--9-----9----9--9---9-10--9--|
E|----------------------------|-----------------------------|

     E.  S  E  S E  S S S E   E     E.  S E  S E  S S S E  E
G|-------------------------------|----------------------------|
D|-------------------------------|----------------------------|
A|--10-----10----9--9---9-9--10--|--7-----7----7--7---7-0--0--|
E|-------------------------------|----------------------------|

    E.  S E  S E  S S S E  E     E.  S E  S E  S S S  E  E
G|----------------------------|-----------------------------|
D|----------------------4--7--|-----------------------------|
A|--5-----5----5--5---5-------|--9-----9----9--9---9-10--9--|
E|----------------------------|-----------------------------|

     E.  S  E  S E  S S S E   E     E.  S E  S E  S S S E  E
G|-------------------------------|----------------------------|
D|-------------------------------|----------------------------|
A|--10-----10----9--9---9-9--10--|--7-----7----7--7---7-0--0--|
E|-------------------------------|----------------------------|

[Outro] (Bass)
    H.           Q       H.           Q       Q.     E  Q.     E
G|--------------------|--------------------|----------------------|
D|--------------------|--------------------|----------------------|
A|--------------------|--------------------|--5---------0---------|
E|--3-----------------|--5-----------------|----------------------|

    Q.     E  Q    Q       H.           Q       H.           Q
G|----------------------|--------------------|--------------------|
D|----------------------|--------------------|--------------------|
A|--2---------2---------|--------------------|--------------------|
E|-----------------1----|--3-----------------|--5-----------------|

    Q.     E  Q.     E     H.           Q       W
G|----------------------|--------------------|-------------------|
D|----------------------|--------------------|-------------------|
A|--5---------0---------|--2-----------------|-------------------|
E|----------------------|--------------------|-------------------|

    W                   H.           Q       H.           Q
G|-------------------|--------------------|--------------------|
D|-------------------|--------------------|--------------------|
A|-------------------|--------------------|--------------------|
E|-------------------|--3-----------------|--5-----------------|

    W
G|-------------------||
D|-------------------||
A|--5----------------||
E|-------------------||

Duration Legend
---------------
W - whole
H - half
Q - quarter
E - 8th
S - 16th
T - 32nd
. - note dotted
Suggest correction
comments
print report bad tab
1 comment total.
+1 reply
serenz 58 Aug 09, 2015 01:35 PM

Lack of formatting. Lack of accuracy. pre solo is incorrect, formatting is terrible. the verses are played differemtly in the song and the tab says they are the same

guest
You may want to rate the tab now too:
select rating
Wanna post a correction for this tab? Suggest correction