Oops, an error
Loading. Please wait.

Mardy Bum Tab

version 5
version 5

Solo

Interactive

37,448 views 66 this week
1 commentread comment
1 2 3 4 5
excellent!
x 14
add to favorites
launch autoscroll
font size
0
reset
how to read this tab
guitar tuner
Tab Pro tools
  • play this tab
  • loop segment
  • change instrument
  • show fretboard
  • metronome
×
Best way to learn
"Mardy Bum"
Autoscroll
slow
fast
+/-
esc
set tempo
stop
Contributor
Difficulty
intermediate
Hello. I've transcribed one of the best Arctic Monkeys' songs, Mardy Bum, for you to 
it. I believe this is the most correct and complete tab,
if you really want to sound like AM then you must check out this tab. Enjoy!

INTRO

-Guitar One-

|--7-7-7-7----------------------------------|
|-----------10--7---------------------------|
|------------------9--7---------------------|
|------------------------9--7--9--7---------|
|------------------------------------9--7---|
|-------------------------------------------|

-Guitar Two-

|--7777777--5555555--3333333--0000000-------------------------------|
|--8888888--7777777--5555555--2222222-------------------------------|
|-------------------------------------------------------------------|
|-------------------------------------------------------------------|
|-------------------------------------------------------------------|
|-------------------------------------------------------------------|

-Guitar One-

|-------------------------------------------------------------------|
|--7-x-x-7-----7------------------7-x-x-7-----7---------------------|
|-----------9-----9--7--x--7--9------------9-----9--7--x--7--9------|
|-------------------------------------------------------------------|
|-------------------------------------------------------------------|
|-------------------------------------------------------------------|

|-------------------------------------------------------------------|
|--6--7--7--6-------7777--9-----------------------------------------|
|-------------9--7--------------------------------------------------|
|-------------------------------------------------------------------|
|-------------------------------------------------------------------|
|-------------------------------------------------------------------|

|-------------------------------------------------------------------|
|--7-x-x-7-----7------------------7-7-7-----7-----------------------|
|-----------9-----9--7--x--7--9----------9-----9--7--x--7--9--------|
|-------------------------------------------------------------------|
|-------------------------------------------------------------------|
|-------------------------------------------------------------------|

|-------------------------------------------------------------------|
|--6--7--7--6----6--7--7777--7s9--7---------------------------------|
|-------------9-----------------------------------------------------|
|-------------------------------------------------------------------|
|-------------------------------------------------------------------|
|-------------------------------------------------------------------|

-Guitar Two-
   D  F#  G   F#m Em
|------------------------------------------------------|
|--7--11--12--10--8------------------------------------|
|--7--11--12--11--9------------------------------------|
|--7--11--12--11--9------------------------------------|
|--5--9---10--9---7------------------------------------|
|------------------------------------------------------|

VERSE

-Guitar Two-
   D                       F#
|--x-xx-x-x-xx-xx-x-x---x-xx-x-x-x--x--xx-x--x---------|
|--7-xx-7-x-77-xx-7-x---11xx-11x-11-11-xx-11-x---------|
|--7-xx-7-x-77-xx-7-x---11xx-11x-11-11-xx-11-x---------|
|--7-xx-7-x-77-xx-7-x---11xx-11x-11-11-xx-11-x---------|
|--5-xx-5-x-55-xx-5-x---9-xx-9-x-9--9--xx-9--x---------|
|--x-xx-x-x-xx-xx-x-x---x-xx-x-x-x--x--xx-x--x---------|

   G            F#m             Em             F#m
|--x--xx-x--x---x--x--xx-x--x---x-xx-x-x-xx-xx-x--x----|
|--12-xx-12-12--10-10-xx-10-x---8-xx-8-x-88-xx-10-x----|
|--12-xx-12-12--11-11-xx-11-x---9-xx-9-x-99-xx-11-x----|
|--12-xx-12-12--11-11-xx-11-x---9-xx-9-x-99-xx-11-x----|
|--10-xx-10-10--9--9--xx-9--x---7-xx-7-x-77-xx-9--x----|
|--x--xx-x--x---x--x--xx-x--x---x-xx-x-x-xx-xx-x--x----|

CHORUS

-Guitar Two-
   G    A    D      A    Bm
|-------------------------------------------|
|------------7--7--------3--3--3------------|
|--4----6----7--7---6----4--4--4------------|
|--5----7----7--7---7----4--4--4------------|
|--5----7----5--5---7----2--2--2------------|
|--3----5-----------5-----------------------|
   G    A    D      A    Bm         G    A
|-------------------------------------------|
|------------7--7--------3--3--3------------|
|--4----6----7--7---6----4--4--4----4----6--|
|--5----7----7--7---7----4--4--4----5----7--|
|--5----7----5--5---7----2--2--2----5----7--|
|--3----5-----------5---------------3----5--|

BRIDGE

-Guitar Two-
   F#       G         F#       G         F#       G       F#        G   A
|---------------------------------------------------------------------------|
|---------------------------------------------------------------------------|
|-------------------------------------------------------------------44--66--|
|-------------------------------------------------------------------55--77--|
|--44444444-55555555--44444444-55555555--44444444-55555555-44444444-55--77--|
|--22222222-33333333--22222222-33333333--22222222-33333333-22222222-33--55--|

 SOLO

 -Guitar One-

|------------------------------------------------------------------------------------------|
|------------------------------------------------------------------------------------------|
|--/9--7--6--7-----6--7--9--7--6--7-----6-----6--------------------------------------------|
|------------------------------------------9-----9--7--9---7-------------7-----------------|
|-------------------------------------------------------------9--9--7h9-----9--7-----------|
|----------------------------------------------------------------------------------11--11--|


|--------------------------------------------------------------------|
|---------------------------7-------------------------7--------------|
|-7777--9--6----6--6--7--9-----9--7----------7--7--9-----9--7--9--7--|
|------------------------------------9----9--------------------------|
|--------------------------------------------------------------------|
|--------------------------------------------------------------------|

OUTRO

-Guitar Two-
   G    A    D    A    Bm
|------------------------------------|
|------------7---------3-------------|
|--4----6----7----6----4-------------|
|--5----7----7----7----4-------------|
|--5----7----5----7----2-------------|
|--3----5---------5------------------|
comments
print report bad tab
1 comment total.
0 reply
Heartlesss.Bast wrote on October 8 2013, 09:27 pm

|-------------------------------------------------------------------|
|--6--7--7--6-------7777--9-----------------------------------------|
|-------------9--7--------------------------------------------------|
|-------------------------------------------------------------------|
|-------------------------------------------------------------------|
|-------------------------------------------------------------------|
This part and
|-------------------------------------------------------------------|
|--6--7--7--6----6--7--7777--7s9--7---------------------------------|
|-------------9-----------------------------------------------------|
|-------------------------------------------------------------------|
|-------------------------------------------------------------------|
|-------------------------------------------------------------------|
This one are one string down, it should be on the third string and no on the second, and also
11--11--|
This part of the solo doesn't sound right, it should be
9--7--5---------|

I want to post or [tab]
guest
You may want to rate the tab now too:
select rating
Please do not post tabs as comments. Select "correction" instead!