Oops, an error
Loading. Please wait.

Mardy Bum Bass Tab

version 6
version 6
1,971 views 3 this week
no commentswrite comment
1 2 3 4 5
please rate
add to favorites
launch autoscroll
font size
0
reset
guitar tuner
Tab Pro tools
  • play this tab
  • loop segment
  • change instrument
  • show fretboard
  • metronome
×
Best way to learn
"Mardy Bum"
Autoscroll
slow
fast
+/-
esc
set tempo
stop
Contributor
Artist: Arctic Monkeys

Album: Whatever People Say I Am That's What I Am Not



All tabs by Pedro Zappa
-----------------------------------------------------------------------------
-----------------------------------------------------------------------------


9. Mardy Bum


Intro

(wait)

G||--------------------|--------------------|
D||----------------4-7-|-4----4---4-4--45-4-|
A||-5----5---5-5--5----|--------------------|
E||--------------------|--------------------|
    i    i    i    i     i    i    i    i
G||--------------------|--------------------|| x2
D||-5----5---4-4--44-5-|-2----2---2-2--2----||
A||--------------------|----------------0-0-||
E||--------------------|--------------------||
    i    i    i    i     i    i    i    i
G||--------------------|
D||--------------------|
A||-5-----------\------|
E||--------------------|
    i    i    i    i  

Verse 1

(wait)

G||--------------------|
D||--------------------|
A||-------------0--3-4-|
E||--------------------|
    i    i    i    i 
G||--------------------|--------------------|
D||----------------4-7-|-4----4---4-4--45-4-|
A||-5----5---5-5--5----|--------------------|
E||--------------------|--------------------|
    i    i    i    i     i    i    i    i
G||--------------------|--------------------||
D||-5----5---4-4--44-5-|-2----2---2-2--27-7-||
A||--------------------|--------------------||
E||--------------------|--------------------||
    i    i    i    i     i    i    i    i

Chorus 1

G||--------------------|--------------------|
D||-5------------------|-7------------------|
A||--------------------|--------------------|
E||--------------------|--------------------|
    i    i    i    i     i    i    i    i
G||--------------------|--------------------|
D||---------7----------|---------4------2---|
A||-5---5--------------|-2---2--------------|
E||--------------------|--------------------|
    i    i    i    i     i    i    i    i
G||--------------------|--------------------|
D||--------------------|--------------------|
A||--------------------|--------------------|
E||-3------------------|-5------------------|
    i    i    i    i     i    i    i    i
G||--------------------|--------------------|
D||--------------------|---------4------2---|
A||-5---5--------------|-2---2--------------|
E||---------5----------|--------------------|
    i    i    i    i     i    i    i    i
G||--------------------|--------------------|
D||--------------------|--------------------|
A||--------------------|--------------------|
E||-3------------------|-5------------------|
    i    i    i    i     i    i    i    i

Verse 2

G||--------------------|--------------------|
D||----------------4-7-|-4----4---4-4--45-4-|
A||-5----5---5-5--5----|--------------------|
E||--------------------|--------------------|
    i    i    i    i     i    i    i    i
G||--------------------|--------------------||  x2
D||-5----5---4-4--44-5-|-2----2---2-2--2----||
A||--------------------|----------------0-0-||
E||--------------------|--------------------||
    i    i    i    i     i    i    i    i
G||--------------------|--------------------|
D||----------------4-7-|-4----4---4-4--45-4-|
A||-5----5---5-5--5----|--------------------|
E||--------------------|--------------------|
    i    i    i    i     i    i    i    i
G||--------------------|--------------------||
D||-5----5---4-4--44-5-|-2----2---2-2--27-7-||
A||--------------------|--------------------||
E||--------------------|--------------------||
    i    i    i    i     i    i    i    i

Chorus 2

G||--------------------|--------------------|
D||-5------------------|-7------------------|
A||--------------------|--------------------|
E||--------------------|--------------------|
    i    i    i    i     i    i    i    i
G||--------------------|--------------------|
D||---------7----------|---------4------2---|
A||-5---5--------------|-2---2--------------|
E||--------------------|--------------------|
    i    i    i    i     i    i    i    i
G||--------------------|--------------------|
D||--------------------|--------------------|
A||--------------------|--------------------|
E||-3------------------|-5------------------|
    i    i    i    i     i    i    i    i
G||--------------------|--------------------|
D||--------------------|---------4------2---|
A||-5---5--------------|-2---2--------------|
E||---------5----------|--------------------|
    i    i    i    i     i    i    i    i
G||--------------------|--------------------|
D||--------------------|--------------------|
A||--------------------|--------------------|
E||-3------------------|-5--------------5\--|
    i    i    i    i     i    i    i    i

Bridge


G||--------------------|--------------------||  x2
D||--------------------|--------------------||
A||----------------2---|-----------2-4--5-4-||
E||-2-2--2-2--2-2----2-|-3-3--3-3-----------||
    i    i    i    i     i    i    i    i
G||--------------------|--------------------|
D||--------------------|------------------4-|
A||----------------2---|-----------2-4--5---|
E||-2-2--2-2--2-2----2-|-3-3--3-3-----------|
    i    i    i    i     i    i    i    i
G||--------------------|--------------------|
D||--------------------|--------------------|
A||----------------2---|--------------------|
E||-2-2--2-2--2-2----2-|-3----3/---5----5---|
    i    i    i    i     i    i    i    i

Solo

G||--------------------|--------------------|
D||----------------4-7-|-4-44-4-44--4--45-4-|
A||-5-55-5-55--5--5----|--------------------|
E||--------------------|--------------------|
    i    i    i    i     i    i    i    i
G||--------------------|--------------------||
D||-5-55-5-54--4--44-5-|-2-22-2-22---2-2----||
A||--------------------|----------------0-0-||
E||--------------------|--------------------||
    i    i    i    i     i    i    i    i

G||--------------------|--------------------|
D||----------------4-7-|-4----4---4-4--45-4-|
A||-5-55-5-55-5555-----|--------------------|
E||--------------------|--------------------|
    i    i    i    i     i    i    i    i
G||--------------------|--------------------||
D||-5-55-5--54-4--44-5-|-2-22-2----2-2------||
A||--------------------|----------------0-0-||
E||--------------------|--------------------||
    i    i    i    i     i    i    i    i

Chorus 3

G||--------------------|--------------------|
D||--------------------|--------------------|
A||--------------------|--------------------|
E||-3------------------|-5------------------|
    i    i    i    i     i    i    i    i
G||--------------------|--------------------|
D||--------------------|--------------------|
A||-5------------------|-----------9----7---|
E||-----------5--------|-7------------------|
    i    i    i    i     i    i    i    i
G||--------------------|--------------------|
D||--------------------|--------------------|
A||--------------------|--------------------|
E||-3------------------|-5------------------|
    i    i    i    i     i    i    i    i
G||--------------------|--------------------|
D||--------------------|--------------------|
A||-5------------------|--------------------|
E||-----------5--------|-7------------------|
    i    i    i    i     i    i    i    i
 
(wait)

G||--------------------|--------------------|
D||--------------------|--------------------|
A||--------------------|--------------------|
E||-3------------------|-5------------------|
    i    i    i    i     i    i    i    i
G||--------------------|
D||--------------------|
A||-5------------------|
E||--------------------|
    i    i    i    i  


Tab by Pedro Zappa
-----------------------------------------------------------------------------
-----------------------------------------------------------------------------
comments
We did not receive enough feedback on this tab! Please rate:
print report bad tab
1 2 3 4 5
I want to post or [tab]
guest
You may want to rate the tab now too:
select rating
Please do not post tabs as comments. Select "correction" instead!