Oops, an error
Loading. Please wait.

Matador Tab

version 1
version 1

Whole song

Interactive

9,325 views 12 this week
1 commentread comment
1 2 3 4 5
accurate
x 6
add to favorites
launch autoscroll
font size
0
reset
how to read this tab
guitar tuner
Tab Pro tools
  • play this tab
  • loop segment
  • change instrument
  • show fretboard
  • metronome
×
Best way to learn
"Matador"
Autoscroll
slow
fast
+/-
esc
set tempo
stop
Contributor
Arctic Monkeys
Matador
Favourite Worst Nightmare (japanese Version anyway!)
and on some b-sides

There's stuff in background that can't quite figure out, but I think the basics are there.

lots of parts to this song so i haven't labled any as intro etc. it just goes in this order

e|------|
b|------|
g|14b15-
d|------|
a|------|
e|------|

(kind of main riff)

e|--------------------|
b|--------------------|
g|--------------------|
d|--------------------|   X2
a|-------5----1----4--|
e|--3-----------------|

then tremelo pick the above 4 however long it is!

e|-----------------------------------|
b|-----------------------------------|
g|7-------7----7-------10--9--5--7v--|
d|---5-------5----5------------------| X4
a|-----------------------------------|
e|-----------------------------------|


e|------------------|
b|------------------|
g|------------------|
d|------------------|
a|----5--5----3--3--| X12 ...then
e|3--3----4--4------|             e|3v~


e|----------------------------------------------|
b|----------------------------------------------|
g|--9\--9\--9\--9\-  X8  ...then g|--99999999-0-|
d|----------------------------------------------|
a|----------------------------------------------|
e|----------------------------------------------|


e|--------------------------------|
b|--------------------------------|
g|--------------------------------|
d|--------------------------------|  X2
a|--------------------------------|
e|--15-tremelo pick down to-3~~---|


e|----
b|----
g|-12-
d|-12-
a|-10-  stuff based around this chord when theres singing
e|----

guitar 1

e|-xx---xx---xx---xx---         e|----|
b|-xx---xx---xx---xx---         b|----|
g|-xx-7-xx-10xx-9-xx-8-         g|-7~-|
d|-xx-7-xx-10xx-9-xx-8-  end on d|-7~-|
a|-xx-5-xx-8-xx-7-xx-6-         a|-5~-|
e|-xx---xx---xx---xx---         e|----|

guitar 2

e|-xx---xx---xx---xx---         e|-----|
b|-xx---xx---xx---xx---         b|-----|
g|-xx-12xx-15xx-14xx-13-        g|-12~-|
d|-xx-12xx-15xx-14xx-13- end on d|-12~-|
a|-xx-10xx-13xx-12xx-11-        a|-10~-|
e|-xx---xx---xx---xx---         e|-----|

enjoy!
comments
print report bad tab
1 comment total.
+1 reply
owen108 wrote on August 13 2007, 10:41 pm

nice work guvna!

I want to post or [tab]
guest
You may want to rate the tab now too:
select rating
Please do not post tabs as comments. Select "correction" instead!