Oops, an error
Loading. Please wait.

My Propeller Bass Tab

version 1
version 1

Whole song

Interactive

26,259 views 30 this week
no commentswrite comment
1 2 3 4 5
x 6
add to favorites
launch autoscroll
font size
0
reset
guitar tuner
Autoscroll
slow
fast
+/-
esc
set tempo
stop
Help us to improve Ultimate-Guitar.com Take our survey!
×
Author
Difficulty
intermediate
G|--------------------------------------------|
D|--------------------------------------------|
A|777777777-----------------------------------|
E|----------3-8-7-5-7-5~--8-7-5-3-7-5-3-2-0~--|


Come back in with the drums

G|--------------------------------------|
D|--------------------------------------|
A|---------------------------------2----|x8
E|12-121212\7-7-0-5-0--3-333-5-5-3---3--|

G|-----------------------------------|
D|-----------------------------------|
A|3--3-2-0-----------0--2--2~--------|
E|---------3-2--2--3------------1~---|

G|--------------------------------------|
D|--------------------------------------|
A|---------------------------------2----|x11
E|12-121212\7-7-0-5-0--3-333-5-5-3---3--|

G|-----|
D|-----|
A|-----|
E|0~~--|
Come back in after 'evil'

G|--------------------------------------|
D|--------------------------------------|
A|---------------------------------2----|x4
E|12-121212\7-7-0-5-0--3-333-5-5-3---3--|

G|------------------------------------------------------------------------------|
D|------------------------------------------------------------------------------|
A|3--3-2-0-----------0--2--2--0---------------2-3--3-2-0-----------0--2~--------|
E|---------3-2--2--3------------3-2-0--0--2-3------------3-2--2--3---------1~---|

Outro:

G|-----------------------------------------|
D|-----------------------------------------|
A|777777777--------------------------------|x5
E|----------3-8-7-5-7-5~--8-7-5-3-7-5-3-2--|

G|-----------------------------------------|
D|-----------------------------------------|
A|77xx77xx7-7------------------------------|
E|------------8-7-5-7-5~--8-7-5-3-7-5-3-2--|

G|-----------------------------------------|
D|--5--------------------------------------|
A|7---7-5-7--------------------------------|
E|----------3-8-7-5-7-5~--8-7-5-3-7-5-3-2--|

G|-----------------------------------------|
D|----------5------------------------------|
A|77xx77xx7--------------------------------|
E|------------8-7-5-7-5~--8-7-5-3-7-5-3-2--|

G|--------------------------------------------|
D|--5-----------------------------------------|
A|7---7-5-7-----------------------------------|
E|----------3-8-7-5-7-5~--8-7-5-3-7-5-3-2-0~--|
Suggest correction
comments
print report bad tab
guest
You may want to rate the tab now too:
select rating
Wanna post a correction for this tab? Suggest correction