Oops, an error
Loading. Please wait.

No Buses Tab

version 1
version 1

Intro

Whole song

Interactive

31,755 views 54 this week
5 commentsread comments
1 2 3 4 5
worth learning
x 6
add to favorites
launch autoscroll
font size
0
reset
how to read this tab
guitar tuner
Tab Pro tools
  • play this tab
  • loop segment
  • change instrument
  • show fretboard
  • metronome
×
Best way to learn
"No Buses"
Autoscroll
slow
fast
+/-
esc
set tempo
stop
Contributor
|-------------------------------------------------------------------|
Arctic Monkeys-No Buses
Album: Who the Fuck Are the Arctic Monkeys (EP)
|-------------------------------------------------------------------|

Chords used 
 
    (E)     (E7)   (C#m)    (C#)   (G#m)   (G#)     (A)     (B)
e|---0---|---0---|---9---|---9---|---4---|---4---|---0---|---7---|
B|---0---|---0---|---9---|---9---|---4---|---4---|---2---|---7---|
G|---1---|---1---|---9---|---10--|---4---|---5---|---2---|---8---|
D|---2---|---0---|---11--|---11--|---6---|---6---|---2---|---9---|
A|---2---|---2---|---11--|---11--|---6---|---6---|---0---|---9---|
E|---0---|---0---|---9---|---0---|---4---|---4---|---x---|---7---|

Intro
   
e|--0--9--4h----0--0--0h----0--2--0--4--9---2-0--|
B|--0--9--4h----2--12-0h----2--2--9--4--9---2-0--|
G|--1--9--4h----2--12-1h----2--2--9--4--10--2-1--|
D|--2--11-6h----2--12-2h----2--4--9--6--11--4-2--|
A|--2--11-6h----0--0--2h----0--4--0--6--11--4-2--|
E|--0--9--4h----x--x--0h----x--2--x--4--9---2-0--|



Verse

  (E)(C#m)          (G#m)
e|-0---9--------------4-|
B|-0---9--------------4-|
G|-1---9--------------4-|
D|-2---11-------------6-|
A|-2---11-------------6-|
E|-0---9--------------4-|
  Lady where has your love gone?


       (A)                  (A)        (E) (E7)
e|------0--------------------0----------0----0-|
B|------2--------------------2----------0----0-|
G|------2--------------------2----------1----1-|
D|------2--------------------2----------2----0-|
A|------0--------------------0----------2----2-|
E|------x--------------------x----------0----0-|
  I was looking but I can’t find anywhere


  (A)          (F#m)               (G#m)        (C#)
e|-0-------------2-------------------4------------9--|
B|-2-------------2-------------------4------------9--|
G|-2-------------2-------------------4------------10-|
D|-2-------------4-------------------6------------11-|
A|-0-------------4-------------------6------------11-|
E|-x-------------2-------------------4------------9--|
   They always offer when there’s loads of love around







 
 (G#m)                                   (B)                 (E)
e|-4--------------------------------------7-------------------0-|
B|-4--------------------------------------7-------------------0-|
G|-4--------------------------------------8-------------------1-|
D|-6--------------------------------------9-------------------2-|
A|-6--------------------------------------9-------------------2-|
E|-4--------------------------------------7-------------------0-|
   But, when you’re sort of some, it’s nowhere to be found


Repeat those chords:

Well, I know your game, you told him yesterday

No chance; you'll get nothing from me

But now she's there, you're there, everybody's there

He's in turmoil, as puzzled as can be

  (E)     (E7)
e|-0--------0-|
B|-0--------0-|
G|-1--------1-|
D|-2--------0-|
A|-2--------2-|
E|-0--------0-|
   Just like me.

(Drums start)

          (A)           (G#)
e|---------0-------------4-|
B|---------2-------------4-|
G|---------2-------------5-|
D|---------2-------------6-|
A|---------0-------------6-|
E|---------x-------------4-|
 Let’s go down, down, low down.


           (C#m)            (F#m)
e|-----------9----------------2-|
B|-----------9----------------2-|
G|-----------9----------------2-|
D|-----------11---------------4-|
A|-----------11---------------4-|
E|-----------9----------------2-|
  Where I know I should not go.









        (A)                         (G#)
e|-------0---------------------------4-|
B|-------2---------------------------4-|
G|-------2---------------------------5-|
D|-------2---------------------------6-|
A|-------0---------------------------6-|
E|-------x---------------------------4-|
  Oh and she thinks she is the one.


               (C#m)  (F#m)
e|---------------9------2-|
B|---------------9------2-|
G|---------------9------2-|
D|---------------11-----4-|
A|---------------11-----4-|
E|---------------9------2-|
  But she’s just one in twenty four.


                   (A) (A)        (A)
e|------------------0---0----------0-|
B|------------------2---2----------2-|
G|------------------2---2----------2-|
D|------------------2---2----------2-|
A|------------------0---0----------0-|
E|------------------x---x----------x-|
  And just because everyone’s doing it,


               (G#)     (G#) (G#)           
e|--------------4--------4----4-|
B|--------------4--------4----4-|
G|--------------5--------5----5-|
D|--------------6--------6----6-|
A|--------------6--------6----6-|
E|--------------4--------4----4-|
  Does that mean that I can, too?









comments
print report bad tab
5 comments total. Showing first comments.
0 reply
z3r0element07 wrote on July 5 2006, 10:13 am

There's a capo on the 4th fret.

0 reply
The Stroke wrote on September 4 2006, 04:30 am

I don't think there is zeroelement07, that high pitched sound is a studio added effect. Is this song even complete? looks like it only has half done...

0 reply
XVentura wrote on November 28 2006, 12:38 pm

intro is wrong mate. he only plays the e, B and G strings for the catchy intro

I want to post or [tab]
guest
You may want to rate the tab now too:
select rating
Please do not post tabs as comments. Select "correction" instead!