Oops, an error
Loading. Please wait.

No Buses ukulele

version 1
version 1

Whole song

  • This was transposed down a few keys, if you wish t... Show more

Interactive

5,750 views 18 this week
no commentswrite comment
1 2 3 4 5
2 more votes to show rating
add to favorites
×
Save as Personal and add changes to this tab that will be seen only by you. Learn more ›
×
You can save this tab as Personal to edit and correct it or add notes. All changes will be seen only by you. Learn more »
launch autoscroll
font size
0
reset
transpose
0
reset
simplify chords
display chords
guitar tuner
edit
Autoscroll
slow
fast
+/-
esc
set tempo
stop
Strumming
There is no strumming pattern for this song yet. and get +5 IQ
----------------------------------------------------------------------------
                        No Buses - Arctic Monkeys
----------------------------------------------------------------------------
Tabbed by: Kevin Perry
Email: leon-lihart@hotmail.com

Intro (can be played with the capo) thanks to meta40

e|--7--4--4----5--9--7----5--9---11--9---9---7--4--4------|
B|--9--5--4----5--10-9----5--10--12--9---10--7--4--5------|
G|--9--6--4----6--9--9----6--11--13--10--11--8--4--4------|
D|--------------------------------------------------------|
A|--------------------------------------------------------|
E|--------------------------------------------------------| 

Capo on 4th Fret


D      Bm             Bm*       D*
Lady, where has your love gone?
      C                 Am*          D          G7
I was looking but can't find it anywhere
C           Am*                 Bm*               B*
They always offer when there's loads of love around
                 Am*                  D*           D
But, when you're short of some it's nowhere to be found

D        Bm        Bm*      D*
Well, I know your game, you told him yesterday
C           Am*                   D    G7
No chance, you'll get nothin' from me
         C            Am*          Bm*          B*
But now she's there, you're there, everybody's there
        Am*          D*           D
He's in turmoil, as puzzled as can be

        G7
Just like me
        C                B
Lets go down, down, low down
          Bm               Am
Where I know I should not go
       C                     B
Oh and she thinks shes the one
               Bm      Am
But she's just one in 24
               C    C     C
And just cause everybodys doin' it
           B        B  B
Does that mean that I can, too?

D      Bm             Bm*     D*
Lady, where has your love gone?
    C            Am*          D          G7
He was the antiseptic to the sore
C                   Am*          Bm*          B*
To hold you by the hand must be first be in demand
        Am*              D*                D
How he longs for you to long for him once more

          G7
Just once more
        C                B
Lets go down, down, low down
          Bm               Am
Where I know I should not go
       C                     B
Oh and she thinks shes the one
               Bm      Am
But she's just one in 24
               C    C     C
And just cause everybodys doin' it
           B        B  B
Does that mean that I can, too?


Bm                Bm   Bm* A#* Am*
Her eyes went down and cut you up
              D*
And there's nothing like a dirty look from
Bm          Bm           Bm* A#*    Am*     D*
The one you want, or the one you've lost

D       Bm      Bm*                 C
An ache in your soul is everybody's goal
   Am*            D         G7
To get what they can't have
            C         Am*               Bm*
That's why your after her and thats why she's after him
    B*                   Am*       D*      D
But saying it won't change a thing

              Am*        D*                D        E7
And they'll realize that it won't change a thing
Am*        D*                D        
Realizing it won't change a thing.

Little outro riff
e|-------------------------------------------------------------------------|
B|-------------------------------------------------------------------------|
G|-------------16--18--16--------------------------------------------------|
D|-----16--16--------------18--16--14--------------------------------------|
A|-------------------------------------------------------------------------|
E|-------------------------------------------------------------------------|


Alot of people were having trouble understanding my capo directions so i changed it so 
just play these as shown with the capo on the fourth fret.

   Bm*    D*    Am*    B*    D*   A#*
e|----------------------------------------------------------------------|
B|-12-----9-----10-----------------11-----------------------------------|
G|-13-----9-----11-----10-----8----12-----------------------------------|
D|-13-----9-----11-----11-----9----12-----------------------------------|
A|-11-----7-----9------11-----9----10-----------------------------------|
E|---------------------9------7-----------------------------------------|

Note : He doesn't play a normal F, he plays a modified one that looks like this
     e|---- 
     B|-1--
     G|-2--
     D|-3--
     A|-3--
     E|----
I feel its easier to play a normal F but you can play it however you want.

            
            
Suggest correction
Creating personal tab
Creating personal tab
You can edit any tab online and save it as your Personal.

You can edit, replace or remove any tab part or add personal notes – all changes will be seen only by you.

Personal tabs can be accessed anytime from any device, even offline.
Learn more »
Give kudos to tab author, rate the tab!
1 2 3 4 5
comments
print report bad tab
guest
Wanna post a correction for this tab? Suggest correction