Oops, an error
Loading. Please wait.

No Buses chords

version 3
version 3

Whole song

Interactive

558,789 views 1,200 this week
34 commentsread comments
1 2 3 4 5
x 279
add to favorites
×
Save as Personal and add changes to this tab that will be seen only by you. Learn more ›
×
You can save this tab as Personal to edit and correct it or add notes. All changes will be seen only by you. Learn more »
launch autoscroll
font size
0
reset
transpose
0
reset
simplify chords
display chords
guitar tuner
edit
Autoscroll
slow
fast
+/-
esc
set tempo
stop
Strumming
There is no strumming pattern for this song yet. and get +5 IQ
----------------------------------------------------------------------------
                        No Buses - Arctic Monkeys
----------------------------------------------------------------------------
Tabbed by: Kevin Perry
Email: leon-lihart@hotmail.com
Capo on 4th Fret


[Intro]
(can be played with the capo)

e|--7--4--4----5--9--7----5--9---11--9---9---7--7--7------|
B|--9--5--4----5--10-9----5--10--12--9---10--7--9--9------|
G|--9--6--4----6--9--9----6--11--13--10--11--8--8--9------|
D|--------------------------------------------------------|
A|--------------------------------------------------------|
E|--------------------------------------------------------|


[Chorus]

C      Am             Em*       Cmaj7*
Lady, where has your love gone?
      F                 Dm*         Cmaj7*  C7*
I was looking but can't find it anywhere
F           Dm*                 Em*               A*
They always offer when there's loads of love around
                 Dm*                  G*    G6    C
But, when you're short of some it's nowhere to be found


[Verse]

C        Am        Em*      Cmaj7*
Well, I know your game, you told him yesterday
F           Dm*                 Cmaj7*   C7*
No chance, you'll get nothin' from me
         F            Dm*          Em*          A*
But now she's there, you're there, everybody's there
        Dm*          G*     G6     C
He's in turmoil, as puzzled as can be


[Pre-Chorus]

        C7
Just like me
        F                E
Lets go down, down, low down
          Am               Dm
Where I know I should not go
       F                     E
Oh and she thinks she's the one
               Am      Dm
But she's just one in 24
               F    F     F
And just cause everybody's doin' it
           E        E  E
Does that mean that I can, too?


[Chorus]

C      Am             Em*     Cmaj7*
Lady, where has your love gone?
    F            Dm*          Cmaj7*   C7*
He was the antiseptic to the sore
F                   Dm*          Em*          A*
To hold you by the hand must be first be in demand
        Dm*              G*      G6     C
How he longs for you to long for him once more


[Pre-Chorus]

           C7
Just once more
        F                E
Lets go down, down, low down
          Am               Dm
Where I know I should not go
       F                     E
Oh and she thinks she's the one
               Am      Dm
But she's just one in 24
               F    F      F
And just cause everybody's doin' it
           E        E  E
Does that mean that I can, too?


[Bridge]

Am                Em   Em* D#* Dm*
Her eyes went down and cut you up
              G*
And there's nothing like a dirty look from
Am          Em           Em* D#*    Dm*     G*
The one you want, or the one you've lost

C       Am      Em*                 F
An ache in your soul is everybody's goal
   Dm*            Cmaj7*         C7*
To get what they can't have
            F         Dm*                E7*
That's why your after her and that's why she's after him
    A7*                    Dm*       G*  G6       C
But saying it won't change a thing

C             Dm*        G*       G6       C        A7
And they'll realize that it won't change a thing
Dm*        G*      G6       C
Realizing it won't change a thing.


[Little outro riff]

e|-------------------------------------------------------------------------|
B|-------------------------------------------------------------------------|
G|-------------16--18--16--------------------------------------------------|
D|-----16--18--------------18--16--14--------------------------------------|
A|-------------------------------------------------------------------------|
E|-------------------------------------------------------------------------|


A lot of people were having trouble understanding my capo directions so i changed it so
just play these as shown with the capo on the fourth fret.

   Em*   Cmaj7*   C7*    Dm*    A*     G*      G6     D#*    E7*    A7*
e|-------------------------------------7-------7--------------------9----------------------|
B|-12-----9-------9------10------------7-------9------11-----13-----9----------------------|
G|-13-----8-------7------11-----10-----8-------8------12-----11-----10---------------------|
D|-13-----9-------9------11-----11-----9-------x------12-----13-----9----------------------|
A|-11-----7-------7------9------11-----9-------9------10-----11-----11---------------------|
E|------------------------------9------7-------7--------------------9----------------------|

Note : He doesn't play a normal F, he plays a modified one that looks like this
e|----|
B|-1--|
G|-2--|
D|-3--|
A|-3--|
E|----|
I feel its easier to play a normal F but you can play it however you want.

            
            
Suggest correction
Creating personal tab
Creating personal tab
You can edit any tab online and save it as your Personal.

You can edit, replace or remove any tab part or add personal notes – all changes will be seen only by you.

Personal tabs can be accessed anytime from any device, even offline.
Learn more »
comments
print report bad tab
34 comments total. Showing first comments.
+1 reply
The Stroke 10 Sep 04, 2006 12:41 AM

When it says relative to the capo on 4th, what does that mean?

0 reply
Leon Lihart 63 Sep 04, 2006 07:13 AM

It means that you play it that distance from the capo,Treating the Capo as zero Ex.

e|------------------------------------------|
B|-8-----------------------12---------------|
G|-9--------Would be-------13--Without the--|
D|-9-----------------------13----capo-------|
A|-7-----------------------11---------------|
E|------------------------------------------|

Hope that helps

0 reply
aasit 10 Sep 14, 2006 04:47 AM

How about the intro? I've tried to play it with these chords but I just can't get it right.

guest
You may want to rate the tab now too:
select rating
Wanna post a correction for this tab? Suggest correction