Oops, an error
Loading. Please wait.

No Buses bass

version 4
version 4

Whole song

Interactive

571 views 15 this week
1 commentread comment
1 2 3 4 5
x 5
add to favorites
×
Save as Personal and add changes to this tab that will be seen only by you. Learn more ›
×
You can save this tab as Personal to edit and correct it or add notes. All changes will be seen only by you. Learn more »
launch autoscroll
font size
0
reset
guitar tuner
edit
Autoscroll
slow
fast
+/-
esc
set tempo
stop
Author
-------------------------------------------------------------------------------
                            No Buses - Arctic Monkeys
-------------------------------------------------------------------------------
Tabbed by: JuffBass
Youtube: https://www.youtube.com/user/JuffBass (bass covers with tabs)

=====
HOW TO PLAY / BASS COVER VIDEO: Soon! ;)
=====

Tuning: EADG

0:00 - 1:20
wait or drink some tea

1:21
G|----------------|
D|----------------|
A|----------------|
E|-5-5-5~--4-4-4~-|

1:31
G|------------------------------------|
D|-2~----6~---9-7-6-----4~------6-9-7-|
A|----4~----7--------------7~-7-------|
E|-------------------5~---------------|

1:40
G|-------------------------|
D|----4~-6~----4~----------|
A|----------4~----2~-7~-7\-|
E|-5~----------------------|

1:52
G|-----------------------------------------|
D|-----------------------------------------|
A|---------------------44-4-44-4-99-9-99-9-|
E|-55-5-55-5-44-4-44-4---------------------|

2:01
G|-------------------------------------|
D|-------------------------------------|
A|-------------------44444444-99999999-|
E|-55555555-44444444-------------------|

2:11
G|----------------|
D|----------------|
A|----------------|
E|-5-5-5~--4-4-4~-|

2:20
G|----------------------------------------------------------|
D|-------------------------6~-5~-4-4-4-4-4-4-4-4-------2/6~-|
A|-4-4-4-4-4-4-4-4-------------------------------2-2-2------|
E|-----------------4-4-4-4----------------------------------|

2:30
G|-------------------------------------------------------------|
D|-------------------------6~-5~-4-4-4-4-4-4-4-4-------2/6~----|
A|-4-4-4-4-4-4-4-4-------------------------------2-2-2------7~-|
E|-----------------4-4-4-4-------------------------------------|

2:43
G|----------------------------------------|
D|------4-44--------6-9-7------4-44-------|
A|-----------7-77-7--------------------4~-|
E|-5-55-------------------5-55------------|

2:53
G|----------------------------------------|
D|-4-44----------------4-44---------------|
A|------2-22-7-77-7-77------2-22-7-77--4~-|
E|----------------------------------------|

3:04
G|----------------|
D|-4-44------4-2~-|
A|------2-22------|
E|----------------|

            
            
Suggest correction
Creating personal tab
Creating personal tab
You can edit any tab online and save it as your Personal.

You can edit, replace or remove any tab part or add personal notes – all changes will be seen only by you.

Personal tabs can be accessed anytime from any device, even offline.
Learn more »
comments
print report bad tab
1 comment total.
0 reply
jimbogart 41 Jan 17, 2017 12:40 PM

nice one!!!

guest
You may want to rate the tab now too:
select rating
Wanna post a correction for this tab? Suggest correction