Oops, an error
Loading. Please wait.
We have an official Old Yellow Bricks tab made by UG professional guitarists. Check out the tab »
×

Old Yellow Bricks bass

53,525 views 51 this week
7 commentsread comments
1 2 3 4 5
x 26
add to favorites
×
Save as Personal and add changes to this tab that will be seen only by you. Learn more ›
×
You can save this tab as Personal to edit and correct it or add notes. All changes will be seen only by you. Learn more »
launch autoscroll
font size
0
reset
guitar tuner
edit
Autoscroll
slow
fast
+/-
esc
set tempo
stop
Author
Difficulty
Tuning: EADG


(0:01 - 0:44, 0:57 - 1:27, 1:52 - 2:06, 2:34 - 2:48)
G|---------------------------------------------------------------------------|
D|---------------------------------------------------------------------------|
A|-------------7--7--7--7-7--8--8--8--8-8--5--5--5--5-5----------------------|
E|5--5--5--5-5---------------------------------------------------------------|


(0:44 - 0:57, 1:27 - 1:37, 2:06 - 2:32)
G|10~~~~-9~~~~~-7-9-------------------7~~~~----------------------------------|
D|-------------------or(on the last 1)---------------------------------------|
A|8~~~~--7~~~~~-5-7-------------------5~~~~----------------------------------|
E|---------------------------------------------------------------------------|


(1:37-1:52)
G|---------------------------------------------------------------------------|
D|----9-10-------------------------------------------------------------------|
A|7--------5/7-----5/7-------------------------------------------------------|
E|-------------7-8---------0-0-0---------------------------------------------|


(2:48 - End)
G|---------------------------------------------------------------------------|
D|---------------------------------------------------------------------------|
A|--------7-7----------------------------------------------------------------|
E|5--5--5--------------------------------------------------------------------|



************************************

| ~  Vibrato
| /  Slide up

************************************
Suggest correction
Creating personal tab
Creating personal tab
You can edit any tab online and save it as your Personal.

You can edit, replace or remove any tab part or add personal notes – all changes will be seen only by you.

Personal tabs can be accessed anytime from any device, even offline.
Learn more »
comments
print report bad tab
7 comments total. Showing first comments.
+2 reply
suits_you 50 May 03, 2007 06:46 AM

Was going to put a tab up myself, but this one is pretty spot on. So no point.

+2 reply
clark j 114 May 03, 2007 05:40 PM

the why 4 stars?

+2 reply
j_allen 130 May 17, 2007 12:00 PM

quality song, quality tab

guest
You may want to rate the tab now too:
select rating
Wanna post a correction for this tab? Suggest correction