Oops, an error
Loading. Please wait.

On The Run From The Mi5 tab

version 1
version 1

Whole song

Interactive

2,624 views 9 this week
2 commentsread comments
1 2 3 4 5
x 4
add to favorites
×
Save as Personal and add changes to this tab that will be seen only by you. Learn more ›
×
You can save this tab as Personal to edit and correct it or add notes. All changes will be seen only by you. Learn more »
launch autoscroll
font size
0
reset
how to read this tab
guitar tuner
edit
Autoscroll
slow
fast
+/-
esc
set tempo
stop
i am only 12 but it sounds cool and its a great song!!!!!by joss robinson
you will have to listen to the song for how fast to strum.
Intro:
e-----------------|
b-----------------|
g-----------------|
d-----------------|
a---10------------|  hold this note
e---8-------------|

e-----------------------------------------------|
b-----------------------------------------------|
g-----------------------------------------------|
d-----------------------------------------------|
a----1010---8-8---1010---8-8---1010---8-8---10--|
e----8--8---6-6---8--8---6-6---8--8---6-6---8---|   

       
e---------------------------|
b---------------------------|
g---------------------------|
d-------------1010--88------| x4
a----10101010--8-8--66------|
e----8-8-8-8----------------|

e-----------------------------------------------|
b-----------------------------------------------|
g-----------------------------------------------|
d----1010101010101010---------------------------|x3
a----8-8-8-8-8-8-8-8--1010--8-8---1010--8-8-----|
e---------------------8-8---6-6---8-8---6-6-----|

e--------------------|
b--------------------|
g--------------------|
d--------------------|
a----66666666-5555---|
e----44444444-3333---|

e------------------|
b------------------|
g------------------|
d-------10-8-------|  x2
a--10-4-8--6-8-7---|
e--8--2------6-5---|

e-----------------------------------------------|
b-----------------------------------------------|
g-----------------------------------------------|
d-----------------------------------------------|
a----1010---8-8---1010---8-8---1010---8-8---10--|
e----8--8---6-6---8--8---6-6---8--8---6-6---8---|   

       
e---------------------------|
b---------------------------|
g---------------------------|
d-------------1010--88------| x4
a----10101010--8-8--66------|
e----8-8-8-8----------------|

e-----------------------------------------------|
b-----------------------------------------------|
g-----------------------------------------------|
d----1010101010101010---------------------------|x3
a----8-8-8-8-8-8-8-8--1010--8-8---1010--8-8-----|
e---------------------8-8---6-6---8-8---6-6-----|

e--------------------|
b--------------------|
g--------------------|
d--------------------|
a----66666666-5555---|
e----44444444-3333---|

e------------------|
b------------------|
g------------------|
d-------10-8-------|  x3
a--10-4-8--6-8-7---|
e--8--2------6-5---|
Suggest correction
Creating personal tab
Creating personal tab
You can edit any tab online and save it as your Personal.

You can edit, replace or remove any tab part or add personal notes – all changes will be seen only by you.

Personal tabs can be accessed anytime from any device, even offline.
Learn more »
comments
print report bad tab
2 comments total.
+1 reply
mads2802 41 May 09, 2007 01:26 AM

The fast guitarriff is like this:

e-----------------------------------------------|
b-----------------------------------------------|
g-----------------------------------------------|
d---------1111-1010-8-8-------------------------|x4
a----1010-9-9--8-8--6-6-8-x--9999---------------|
e----8-8----------------6-x--7777---------------|

0 reply
mads2802 41 May 09, 2007 01:30 AM

Uups found a fault. It is only twice times you should play it.

guest
Wanna post a correction for this tab? Suggest correction