Oops, an error
Loading. Please wait.

One For The Road tab

version 1
version 1

Whole song

Interactive

77,160 views 144 this week
6 commentsread comments
1 2 3 4 5
x 27
add to favorites
×
Save as Personal and add changes to this tab that will be seen only by you. Learn more ›
×
You can save this tab as Personal to edit and correct it or add notes. All changes will be seen only by you. Learn more »
launch autoscroll
font size
0
reset
how to read this tab
guitar tuner
edit
Autoscroll
slow
fast
+/-
esc
set tempo
stop
Author
[Intro]

Palm Muted

e|------------7---8---10---8---7------|
B|---8---10------------------------10-|
G|-9---9----9---9---9----9---9---9----|
D|------------------------------------|
A|------------------------------------|
E|------------------------------------|
                                          x2
e|------------------------------------|
B|------------------------------------|
G|------------------------------------|
D|------------------------------------|
A|----3-2-3-2-3-2---------------------|
E|----------------5-3-----------------|


[Verse]

(Chords)

e|------------------------------------|
B|------------------------------------|
G|-------4--5--2----------------------|
D|----2--4--5--2----------------------|
A|----2--2--3--0----------------------|
E|----0-------------------------------|


(Riff)

Played on bass but can be played on the guitar

e|------------------------------------|
B|------------------------------------|
G|------------------------------------|
D|------------------------------------|
A|------------------------------------|
E|---0-3-5-7---8-3-7-5----------------|


[1st Chorus]

(carry on playing the verse)


Play Verse again but there is this played on top of the chords

e|--------------------------------------------|
B|----12--------12--------12--------12--------|
G|--12--12-11-12--12-11-12--12-11-12--12-11---|
D|--------------------------------------------|
A|--------------------------------------------|
E|--------------------------------------------|


[Chorus]

e|-----------------------------------------------------------------|
B|-----------------------------------------------------------------|
G|---5---------------5---------------5---------------5-------4-----|
D|---5-------2-------5-------2-------5-------2-------5-------4-----|
A|---3-------2-------3-------2-------3-------2-------3-------2-----|
E|-----------0---------------0---------------0---------------------|

After chorus repeat the in intro Twice

e|------------7---8---10---8---7------|
B|---8---10------------------------10-|
G|-9---9----9---9---9----9---9---9----|
D|------------------------------------|
A|------------------------------------|
E|------------------------------------|

Then play this twice

e|------------------------------------|
B|------------------------------------|
G|--9-11-12/19-17-16-14-12------------|
D|------------------------------------|
A|------------------------------------|
E|------------------------------------|


[Solo]

e|-------------------------------------------|
B|-------------------------------------------|
G|--14^-----------11-11-11----------------12-| x2
D|------14--12h14---------12/14---9-12-14----|
A|-------------------------------------------|
E|-------------------------------------------|

e|-------------------------------------------------------------------------|
B|--14^-14---19-16---19^-19-16-14---9-12-14-12-14-12-9-12-14-12-9-12-14-16-|
G|-------------------------------------------------------------------------|
D|-------------------------------------------------------------------------|
A|-------------------------------------------------------------------------|
E|-------------------------------------------------------------------------|

e|------------------------------------|
B|----------------19^-17--------------|
G|--19-19^-19-19^--------14-12-9------|
D|------------------------------------|
A|------------------------------------|
E|------------------------------------|


[Final Chorus]

e|-----------------------------------------------------------------|
B|-----------------------------------------------------------------|
G|---5---------------5---------------5---------------5-------4-----|
D|---5-------2-------5-------2-------5-------2-------5-------4-----|
A|---3-------2-------3-------2-------3-------2-------3-------2-----|
E|-----------0---------------0---------------0---------------------|

this is played on top of the chords in the chorus

e|------------------------------------|
B|------------------------------------|
G|--9-11-12/19-17-16-14-12------------|
D|------------------------------------|
A|------------------------------------|
E|------------------------------------|


************************************

| h  Hammer-on
| /  Slide up
| ^  Bend

************************************

            
            
Suggest correction
Creating personal tab
Creating personal tab
You can edit any tab online and save it as your Personal.

You can edit, replace or remove any tab part or add personal notes – all changes will be seen only by you.

Personal tabs can be accessed anytime from any device, even offline.
Learn more »
comments
print report bad tab
6 comments total. Showing first comments.
+2 reply
jankuca 16 Dec 06, 2013 01:43 AM

The second row of the solo should be played on the G string (same frets), otherwise awesome, thanks!

+9 reply
labinnak 10 Dec 20, 2013 03:55 PM

You almost had the intro correct... still palm muted, but I noticed he doesn't keep repeating the 9th fret on the G string.

e|--------------7---8----10----8---7-------|
B|---8----10--8--10---12----10---8------10-|
G|-9---11----------------------------11----|
D|-----------------------------------------|
A|-----------------------------------------|
E|-----------------------------------------|

+2 reply
nathanprother 70 Jan 11, 2014 11:20 AM

yeh I realised after a while it didn't sound right, thanks for correcting me this my first tab I wasn't expecting it to be perfect

guest
You may want to rate the tab now too:
select rating
Wanna post a correction for this tab? Suggest correction