Oops, an error
Loading. Please wait.

Only Ones Who Know Tab

version 1
version 1

Intro

Whole song

Interactive

20,032 views 42 this week
2 commentsread comments
1 2 3 4 5
accurate
x 11
add to favorites
launch autoscroll
font size
0
reset
how to read this tab
guitar tuner
Tab Pro tools
  • play this tab
  • loop segment
  • change instrument
  • show fretboard
  • metronome
×
Best way to learn
"Only Ones Who Know"
Autoscroll
slow
fast
+/-
esc
set tempo
stop
Contributor
Difficulty
intermediate
 :-) ...enyoj!

    F     A7   Dm    Cm    Bbm      Am     Gm    D7

e)--1-----x-----5-----3-----6--------5-----3-----5--|
B)--1-----8-----6-----4-----6--------5-----3-----7--|
G)--2-----6-----7-----5-----6--------5-----3-----5--|
D)--3-----7-----7-----5-----8--------7-----5-----7--|
A)--3-----x----(5)---(3)----8--------7-----5-----5--|
E)-(1)----x-----x-----x----(6)-------x----(3)----x--|

==Intro==

F    A7    Dm    Cm    Bbm    Gm    F    A7    Dm    Cm    Bbm   Gm    F

==1st verse==

      F                  A7                   Dm
In a foreign place, the saving grace was the feeling      
     Cm                               Bbm
And that it was a heart that he was stealing
           Gm                       F
Oh he was ready to impress and the fierce excitement
     A7                        Dm             *                            ( * lead 1st start)
The eyes are bright he couldnt wait to get away
  Cm                            Bbm
I bet the juliet was just the icing on the cake
Am              Gm
Make no mistake no

==Chorus==

Bbm                                                          Am
And even if somehow we could have   shown you the place you wanted
         D7                                    Gm                Bbm
Well I'm sure you could have made it that bit better on your own

==2nd verse==

       F              A7                        Dm
And I bet she told a million people that she'd stay in touch
      Cm                           Bbm
Well all the little promises they dont mean much
             Gm
When theres memories to be made
       F                   A7                Dm
And I hope you're holding hands by new years eve
      Cm                         Bbm
They made it far too easy to believe
            Am                          Gm
That true romance cant be acheived these days

==Chorus==

Bbm                                                         Am
And even if somehow we could have  shown you the place you wanted
         D7                                    Gm
Well I'm sure you could have made it that bit better on your own
            Bbm
You are the only ones who know

==Outro==

 F    A7    Dm    Cm    Bbm    Am    Gm    Gm    Gm    F

                                                          99 % very slow (slide)    Lead guitar
E /--------------------------------------------------------------------------------------------|
B /--3-6-10--3-6-13--10-6--8--10--3-6-10--3-6-13--6--------------------------------------INTRO-|
G /--------------------------------------------------------------------------------------------|
D /--------------------------------------------------------------------------------------------|
A /--------------------------------------------------------------------------------------------|
e /--------------------------------------------------------------------------------------------|

                                                                           1st part lead guitar
E /--------------------------------------------------------------------------------------------|
B /---3-6-10--3-6-13--10--8--8-9--13--11-10h11-10---13--11-10h11-10-------8--8s14---14s6-------|
G /--------------------------------------------------------------------------------------------|
D /--------------------------------------------------------------------------------------------|
A /--------------------------------------------------------------------------------------------|
e /--------------------------------------------------------------------------------------------|

                                       (* 4times to end)         2nd part and outro lead guitar

E /--------------------------------------------------------------------------------------------|
B /-3-6-10--3-6-13--10--8--8-15-14-13--10-8--14--6-8-10--3-6-10--3-6-13-10-8--(13-11-10h11-10)-|
G /--------------------------------------------------------------------------------------------|
D /--------------------------------------------------------------------------------------------|
A /--------------------------------------------------------------------------------------------|
comments
print report bad tab
2 comments total.
0 reply
strokemystripes wrote on March 31 2010, 04:32 pm

Cm is incorrect, I do believe

0 reply
Flationis wrote on April 1 2010, 02:46 pm

chord is E--3
B--4
G--5
D--5
A--3
e--3 ....Cm, but then goes

E--6
B--6
G--6
D--8
A--8
e--6 ....Bbm thanks for comment anyway :-)

I want to post or [tab]
guest
You may want to rate the tab now too:
select rating
Please do not post tabs as comments. Select "correction" instead!