Oops, an error
Loading. Please wait.

Perhaps Vampires Is A Bit Strong But bass

version 1
version 1

Whole song

Interactive

18,458 views 15 this week
4 commentsread comments
1 2 3 4 5
x 21
add to favorites
×
Save as Personal and add changes to this tab that will be seen only by you. Learn more ›
×
You can save this tab as Personal to edit and correct it or add notes. All changes will be seen only by you. Learn more »
launch autoscroll
font size
0
reset
guitar tuner
edit
Autoscroll
slow
fast
+/-
esc
set tempo
stop
Author
Difficulty
Arctic Monkeys - Perhaps Vampires Is A Bit Strong But...
Bass Tab

G|----------------------------------------------------------|
D|----------------------------------------------------------|
A|-----------4-4----------------4-4----------------4-4------|
E|--2-2--5-5-----5-5---2-2--5-5-----5-5---2-2--5-5-----5-5--|

G|-----------------|---------------------------------------|
D|-----------------|---------------------------------------|
A|-----------4-4-3-|-----------4-4----------------4-4------|
E|--2-2--5-5-------|--2-2--5-5-----5-5---2-2--5-5-----5-5--|
                                                      ^ ^
                                                     Harder

G|---------------------------------------|
D|---------------------------------------|
A|-----------4-4----------------4-4------|
E|--2-2--5-5-----5-5---2-2--5-5-----5-5--|
                                    ^ ^
                                   Harder

G|---------------------------------------|
D|---------------------------------------|
A|-----------4-4----------------4-4------|
E|--2-2--5-5-----5-5---2-2--5-5-----5-5--|

G|---------------------------------------|
D|---------------------------------------|
A|-----------4-4----------------4-4------|
E|--2-2--5-5-----5-5---2-2--5-5-----5-5--|

G|------------------------------|
D|------------------------------|
A|------------------------------|
E|--7-9-5--7-9-5--7-9-5--7-9-5--|

G|---------------------------------------|
D|---------------------------------------|
A|-----------4-4----------------4-4------|
E|--2-2--5-5-----5-5---2-2--5-5-----5-5--|
                                    ^ ^
                                   Harder
G|---------------------------------------|
D|---------------------------------------|
A|-----------4-4----------------4-4------|
E|--2-2--5-5-----5-5---2-2--5-5-----5-5--|
                                    ^ ^
                                   Harder

G|---------------------------------------|
D|---------------------------------------|
A|-----------4-4----------------4-4------|
E|--2-2--5-5-----5-5---2-2--5-5-----5-5--|

G|---------------------------------------|
D|---------------------------------------|
A|-----------4-4----------------4-4------|
E|--2-2--5-5-----5-5---2-2--5-5-----5-5--|

G|------------------------------|
D|------------------------------|
A|------------------------------|
E|--7-9-5--7-9-5--7-9-5--7-9-5--|

G|------------------------------|
D|------------------------------|
A|------------------------------|
E|--7-9-5--7-9-5--7-9-5--7-9-5--|

G|---------------|
D|---------------|
A|---------------|
E|--7~~-5~~-7~~--|

G|-----------------------------------------------------------------------|
D|-----------------------------------------------------------------------|
A|------2-3-2---------2-3-2---------2-3-2---------2-3-2---------2-3-2----|
E|--2-5-------5---2-5-------5---2-5-------5---2-5-------5---2-5-------5--|

G|-----------------------------------------------------------------------|
D|-----------------------------------------------------------------------|
A|------2-3-2---------2-3-2---------2-3-2---------2-3-2---------2-3-2----|
E|--2-5-------5---2-5-------5---2-5-------5---2-5-------5---2-5-------5--|

G|-------------------------------------------------------------------|
D|-------------------------------------------------------------------|
A|-------------------------------------------------------------------|
E|--2-2-2-2-4-4-4-4-2-2-2-2-4-4-4-4-2-2-2-2-4-4-4-4-2-2-2-2-4-4-4-4--|

G|--------------------------------------------------|
D|--------------------------------------------------|
A|--------------------------------------------------|
E|--22222222-4--22222222-4--22222222-4--22222222-4--|

G|---------------------------------------------------------------------|
D|---------------------------------------------------------------------|
A|---------------------------------------------------------------------|
E|--22222222222222222222222222222222222222222222222222222222-2~-2~-2~--|

>> Silent Gap <<

G|-------------------------------------------------------|
D|------------------------------------------2------------|
A|------2-3-2---------2-3-2---------2-3-2-----4-2-3-2----|
E|--2-5-------5---2-5-------5---2-5-------5-----------5--|

G|-------------------------------------------------------|
D|------------------------------------------2------------|
A|------2-3-2---------2-3-2---------2-3-2-----4-2-3-2----|
E|--2-5-------5---2-5-------5---2-5-------5-----------5--|

G|--------------------------------------------|
D|-------------------------------2------------|
A|------2-3-------2-3-------2-3----4-2-3-2----|
E|--2-5-------2-5-------2-5----------------5--|

G|--------------------------------------------|
D|-------------------------------2------------|
A|------2-3-------2-3-------2-3----4-2-3-2----|
E|--2-5-------2-5-------2-5----------------5--|

>> No Bass In Scratchy Part <<

G|--------------------|
D|--------------------|
A|-----------4-4------|
E|--2-2--5-5-----5-5--|
                 ^ ^
               Hardest

            
            
Suggest correction
Creating personal tab
Creating personal tab
You can edit any tab online and save it as your Personal.

You can edit, replace or remove any tab part or add personal notes – all changes will be seen only by you.

Personal tabs can be accessed anytime from any device, even offline.
Learn more »
comments
print report bad tab
4 comments total. Showing first comments.
0 reply
El Jimbo 117 Feb 20, 2006 05:13 AM

nice tab!

0 reply
baa 10 Apr 20, 2006 11:47 AM

i'm not a bass player, but that didn't stop me enjoying this brilliant tab!

0 reply
2bit 10 Mar 21, 2007 01:38 AM

yeah good tab, spot on 5 stars

guest
You may want to rate the tab now too:
select rating
Wanna post a correction for this tab? Suggest correction