Oops, an error
Loading. Please wait.

Perhaps Vampires Is Abit Strong intro tab

978 views 1 this week
3 commentsread comments
1 2 3 4 5
x 5
add to favorites
×
Save as Personal and add changes to this tab that will be seen only by you. Learn more ›
×
You can save this tab as Personal to edit and correct it or add notes. All changes will be seen only by you. Learn more »
launch autoscroll
font size
0
reset
how to read this tab
guitar tuner
edit
Autoscroll
slow
fast
+/-
esc
set tempo
stop
Difficulty
-------------------------------------------------------------------------------
                             Perhaps Vampires Is Abit Strong - Arctic Monkeys
------------------------------------------------------------------------------
Tabbed by: Danny Lambert
Email: dreamstation@gmail.com

Tuning: Standard

e|---------------------------------------------------------------------------|
B|---------------------------------------------------------------------------|
G|---4-2-------------------2-----------4-2-------------------2---------------|
D|--------4--------4-2-4------4-2-----------4--------4-2-4------4-2----------|
A|---------------------------------------------------------------------------|
E|---------------------------------------------------------------------------|

e|---------------------------------------------------------------------------|
B|---------------------------------------------------------------------------|
G|---------------------------------------------------------------------------|
D|---4-2------------------2--------------------------------------------------|
A|--------4--------4-2-4-----4-2---------------------------------------------|
E|---------------------------------------------------------------------------|


And then you break into the main song.. It isn't much but I hope it helps!
Suggest correction
Creating personal tab
Creating personal tab
You can edit any tab online and save it as your Personal.

You can edit, replace or remove any tab part or add personal notes – all changes will be seen only by you.

Personal tabs can be accessed anytime from any device, even offline.
Learn more »
comments
print report bad tab
3 comments total.
0 reply
smith92 51 Mar 26, 2006 02:53 AM

Correct.

0 reply
poipoi 253 Apr 13, 2007 01:11 AM

This is right:
G|---4-2-------------------2-----------4-2-------------------2---------------|
D|--------4--------4-2-4------4-2-----------4--------4-2-4------4-2----------|
but then you do the basic part of the intro again, but it has to be lower than that, that's what I hear...

0 reply
bhweddle 10 Jan 08, 2008 07:13 AM

not correct. get better ears. i just started and i could figure out what the tabs were for this

guest
Wanna post a correction for this tab? Suggest correction