Oops, an error
Loading. Please wait.

Plastic Tramp Bass Tab

version 1
version 1

Whole song

  • I play the bass solo an octave higher, in general sounds really accurate.

Interactive

4,222 views 9 this week
no commentswrite comment
1 2 3 4 5
1 last vote to show rating
add to favorites
launch autoscroll
font size
0
reset
guitar tuner
Autoscroll
slow
fast
+/-
esc
set tempo
stop
Help us to improve Ultimate-Guitar.com Take our survey!
×
Author
Verse:

G:--------------------------------|
D:--------------------------------|
A:---4--4----4---4---3--3----3--3-|
E:-2---2---2---2---2---2---2---2--|

Chorus:

G:------------------------------------------|
D:------------------------------------------|
A:----------------------03333333333333030---|
E:-222222222222202--------------------------|

Bass Solo:

G:-----------------------------------------------------------|
D:-----------------------------------------------------------|
A:-44---0-44-----033--0-33------044--0-44------033---0-33----|
E:-----2-2---0202-----2-2---0202-----2-2---0202------2-2-----|

Bridge Thingy: (The notes are right but the rythym might not be)
G:-------------------------------------------------------|
D:-------------------------------------------------------|
A:-4~44-------4-444------4~44-------------2~------2~~----|
E:-------2~22--------2~~--------2~~--5-4-------5-4-------|

Very fast bass bit before final chorus:
G:------|
D:------|
A:---03-|
E:-02---|
Suggest correction
Give kudos to tab author, rate the tab!
1 2 3 4 5
comments
print report bad tab
guest
You may want to rate the tab now too:
select rating
Wanna post a correction for this tab? Suggest correction