Oops, an error
Loading. Please wait.

Plastic Tramp Bass Tab

version 3
version 3

Whole song

  • I play the bass solo an octave higher, in general sounds really accurate.

Interactive

28 views 9 this week
no commentswrite comment
1 2 3 4 5
3 more votes to show rating
add to favorites
launch autoscroll
font size
0
reset
guitar tuner
Autoscroll
slow
fast
+/-
esc
set tempo
stop
Help us to improve Ultimate-Guitar.com Take our survey!
×
Author
Difficulty
About this tab version
I play the bass solo an octave higher, in general sounds really accurate. Was this info helpful? Yes No
                              Arctic Monkeys - "Plastic Tramp"
                                         Bass Tab


Intro

G|----------|----------|----------|----------|
D|----------|----------|----------|----------|
A|---4----4-|---4----4-|---3----3-|---3----3-| x2
E|-2----2---|-2----2---|-1----1---|-1----1---|

Verse 1

G|----------|----------|----------|----------|
D|----------|----------|----------|----------|
A|---4----4-|---4----4-|---3----3-|---3----3-| x4
E|-2----2---|-2----2---|-1----1---|-1----1---|

Chorus

G|---------|---------|---------|---------|---------|---------|---------|-------2-|
D|-4-4-4-4-|-4-4-4-4-|-4-4-4-4-|-4-2-4-2-|---------|---------|---------|---2-4---|
A|---------|---------|---------|---------|-3-3-3-3-|-3-3-3-3-|-3-3-3-3-|-3-------| x4
E|---------|---------|---------|---------|---------|---------|---------|---------|

Post-Chorus/Bass Solo

G|-6-6-------|-6-6-------|-----5-5---|-------5-5-|-----------|
D|-------7---|-----------|-7---------|---7-------|-------7---|
A|-----9---9-|-------7-9-|---9-------|-9---9-----|---7-9---9-|
E|-----------|-----9-----|-----------|-----------|-9---------|

G|-6-6-------|-6-6-------|-----5-5---|-------5-5-|-----------|
D|-------7---|-----------|-7---------|---7-------|-------7-9-|
A|-----9---9-|-------7-9-|---9-------|-9---9-----|---7-9-----|
E|-----------|-----9-----|-----------|-----------|-9---------|

Verse 2

G|----------|----------|----------|----------|
D|----------|----------|----------|----------|
A|---4----4-|---4----4-|---3----3-|---3----3-| x4
E|-2----2---|-2----2---|-1----1---|-1----1---|

Bridge 

G|------------|------------|-------------|------------|
D|------------|------------|-------------|------------|
A|------------|------------|-------------|------------|
E|-9--9-9-9-2-|-9--9-9-9-2-|/9-7-5-7-2-2-|5-4-7-5-4-7-|

After Vocals/Instrumental

G|-------2-|---------|---------|---------|---------|---------|---------|---------|-------2-|
D|---2-4---|-4-4-4-4-|-4-4-4-4-|-4-4-4-4-|-4-2-4-2-|---------|---------|---------|---2-4---|
A|-4-------|---------|---------|---------|---------|-3-3-3-3-|-3-3-3-3-|-3-3-3-3-|-4-------|
E|---------|---------|---------|---------|---------|---------|---------|---------|---------|

G|---------|---------|---------|---------|---------|---------|---------|-------2-|
D|-4-4-4-4-|-4-4-4-4-|-4-4-4-4-|-4-2-4-2-|---------|---------|---------|---2-4---|
A|---------|---------|---------|---------|-3-3-3-3-|-3-3-3-3-|-3-3-3-3-|-4-------|
E|---------|---------|---------|---------|---------|---------|---------|---------|

Chorus 3

G|---------|---------|---------|---------|---------|---------|---------|-------2-|
D|-4-4-4-4-|-4-4-4-4-|-4-4-4-4-|-4-2-4-2-|---------|---------|---------|---2-4---|
A|---------|---------|---------|---------|-3-3-3-3-|-3-3-3-3-|-3-3-3-3-|-3-------| x6
E|---------|---------|---------|---------|---------|---------|---------|---------|

End

D|---------|
D|-4-------|
A|---------|
E|---------|

************************************************

Slide Down - /

************************************************
Suggest correction
Give kudos to tab author, rate the tab!
1 2 3 4 5
comments
print report bad tab
guest
You may want to rate the tab now too:
select rating
Wanna post a correction for this tab? Suggest correction