Oops, an error
Loading. Please wait.

Poker Face tab

2,380 views 1 this week
1 commentread comment
1 2 3 4 5
x 3
add to favorites
×
Save as Personal and add changes to this tab that will be seen only by you. Learn more ›
×
You can save this tab as Personal to edit and correct it or add notes. All changes will be seen only by you. Learn more »
launch autoscroll
font size
0
reset
how to read this tab
guitar tuner
edit
Autoscroll
slow
fast
+/-
esc
set tempo
stop
Author
Difficulty
This is the Poker Face Cover they did when at they studio in London. I figured out the 
to it and you can watch it on youtube and find out for yourself! This is 100% Accurate!

As it was a short clip, you could only see Alex and Matt singing and Alex is thudding on 
E string at the pre-chorus.

E.G. (Keep fingers softly on strings)

e---------------------------------------|
B---------------------------------------|
G---------------------------------------|
D---------------------------------------|
A-----------------------------4---4-----|
E--4-4-4-4-4-4-4-4-4-4-4-4--4---4-------| Then do it again.

This is the chorus.

e------------------------------------------------------------|
B--4-----------------------------------2---------------------|
G--5--8-Times--1--8-Times--0--8-Times--3--8-Times------------|
D--6-----------2-----------4-----------4---------------------|
A--6-----------2-----------2-----------4---------------------|
E------------------------------------------------------------| x2

And that's it. Very fun tune to play.

Thank's for viewing and please give it 5 stars!

You can E-Mail me for any questions on brettthain@hotmail.co.uk.

Thank's again

Brett

            
            
Suggest correction
Creating personal tab
Creating personal tab
You can edit any tab online and save it as your Personal.

You can edit, replace or remove any tab part or add personal notes – all changes will be seen only by you.

Personal tabs can be accessed anytime from any device, even offline.
Learn more »
Give kudos to tab author, rate the tab!
1 2 3 4 5
comments
print report bad tab
1 comment total.
0 reply
diegoelargento 10 Jun 26, 2011 04:52 PM

Thanks, now i can play at the same time i watch the video :3

guest
You may want to rate the tab now too:
select rating
Wanna post a correction for this tab? Suggest correction