Oops, an error
Loading. Please wait.

Put Your Dukes Up John tab

version 1
version 1

Whole song

Interactive

2,644 views 3 this week
2 commentsread comments
1 2 3 4 5
x 3
add to favorites
×
Save as Personal and add changes to this tab that will be seen only by you. Learn more ›
×
You can save this tab as Personal to edit and correct it or add notes. All changes will be seen only by you. Learn more »
launch autoscroll
font size
0
reset
how to read this tab
guitar tuner
edit
Autoscroll
slow
fast
+/-
esc
set tempo
stop
Author
They know how to cover a song don't they? Anyway.

Rythem
Intro/Verse

E|----------------|
B|----------------|
G|2-2-2-----------|
D|2-2-2---3-3-3---|      Repeat as neccesary.
A|0-0-0---3-3-3---|
E|--------1-1-1---|      Note: This cuts out while the bass still plays for
                         the two bars of the echoey bit.


Chorus

E|----------------|
B|----------------|
G|2222222222223333|
D|2222222222223333|      x2
A|0000000000001111|
E|----------------|


Post-Chorus

E|--------------------------------------------------------------|
B|--------------------------------------------------------------|
G|7-7---5-5-5-----------5-5-5-----------------------------------|
D|7-7---5-5-5---7-7-7---5-5-5---5-5-5---8-8-8---3-3-3-3-3-3-3-3-|   x2
A|5-5---3-3-3---7-7-7---3-3-3---5-5-5---8-8-8---3-3-3-3-3-3-3-3-|
E|--------------5-5-5-----------3-3-3---6-6-6---1-1-1-1-1-1-1-1-|

You'll need to listen to the record to get the idea of the rythem but it's not hard

That's all the parts the only other bit is the rythem part for the solo which is 
the same as the post chorus.

Lead


Intro

E|-----------------------|
B|---------------2-------|    This bit is done using a tremelo arm which is
G|2h3p2h3p2h3p2-----2----|    why I've put the hammer on bit in. You could
D|---------------------3-|    also bend the 2 on the G back and forth as
A|-----------------------|    it gives a slightly better effect than the
E|-----------------------|    hammer ons.

Verse

E|--------|
B|--------|
G|2-2-----|
D|----3333|
A|--------|
E|--------|

The chorus and post chorus are the same as the rythem.

Interlude

E|-------------------------------------------|
B|9h10---13-10-------------------------------|
G|-------------9---9999---99-9-9-7-----7--5--|
D|-------------------------------------------|
A|-------------------------------------------|
E|-------------------------------------------|

Solo

E|----------------------------------------|
B|---------8-10----10-------10-8----------|
G|-----7-9---------12b14---------9-7------|
D|7-10-------------------------------10-7-|   The rundown after the bend is
A|----------------------------------------|   done in tremelo picking.
E|----------------------------------------|

Post solo

E|--------------------------------|
B|--------------------------------|  This is basically the chorus chords
G|2-----------3---2-----------3---|  but this breakdown just has drums and
D|--------------------------------|  this played softly.
A|--------------------------------|
E|--------------------------------|


Build Up

E|---------|      E|----------|
B|10-8---8-|      B|10-8-11-8-|
G|-----9---|  x3  G|----------|   x1
D|---------|      D|----------|          This plays with the last bit but
A|---------|      A|----------|          there are technically four parts
E|---------|      E|----------|       at the end so you've got to cut
                                         something out.

Well there you go hope you enjoy it. I'm off to tab the bass aswell now.
Suggest correction
Creating personal tab
Creating personal tab
You can edit any tab online and save it as your Personal.

You can edit, replace or remove any tab part or add personal notes – all changes will be seen only by you.

Personal tabs can be accessed anytime from any device, even offline.
Learn more »
Give kudos to tab author, rate the tab!
1 2 3 4 5
comments
print report bad tab
2 comments total.
0 reply
jason_smiths 10 Sep 05, 2006 06:18 PM

i think the intros played like thissss.

E|---------------|
B|---------------|
G|7-7----2-2-2---|
D|6-6----3-3-3---|
A|6-6----3-3-3---|
E|5-5----1-1-1---|
lead 1st riff
E|--------------------------|
B|--10-8---8---10-10--8---8-|
G|-------9---9----------9---|
D|--------------------------|
A|--------------------------|
E|--------------------------|

thats all ive got so far ill post some more on here when ive got it.
good tab mate.

0 reply
Arcticmonky3 51 Jan 05, 2007 06:45 PM

not a good tab becasue of the intro and everything

guest
You may want to rate the tab now too:
select rating
Wanna post a correction for this tab? Suggest correction