Oops, an error
Loading. Please wait.
We have an official R U Mine tab made by UG professional guitarists. Check out the tab »
×
204,146 views 756 this week
7 commentsread comments
1 2 3 4 5
x 126
add to favorites
launch autoscroll
font size
0
reset
guitar tuner
×
Best way to learn
"R U Mine"
Autoscroll
slow
fast
+/-
esc
set tempo
stop
Author
Difficulty
  follow
intermediate
-------------------------------------------------------------------------------
                              R U Mine? - Arctic Monkeys
-------------------------------------------------------------------------------

Tabbed By : rrr3da
e-mail: rrr3da@hotmail.com

Watch my bass cover @ http://www.youtube.com/watch?v=hSIwFfld3uI

***NOTICE the time tags (x:xx) are related to the beginning of the song, after the 
"spoken-radio-transmission" intro. just sum 23 secs to the tags to sync with the 
youtube version***


Starts at 0:21
G|-----------------------------------|
D|-----------------------------------|
A|-----------------------------------|
E|-10-----10-10---9---7-----7-7---5--|
 | +    -    +    -   +   -   +   -  |


[Riff1] (0:23 to 0:43)
G|-------------------------------------------------------------------|
D|---------------------7---------------------------------------------|
A|-----------------7h9-----9---7-------------------------------------| [X4]
E|-2-----2-2---7h9-----------------10-----10-10---9---7-----7-7---5--|
 | +   -   +   -   +   -   +   -   +    -    +    -   +   -   +   -  |


[Chorus] (0:43 to 1:03)
G|-------------------------------------------------------------------|
D|-------------------------------------------------------------------|
A|-------------------------------------------------------------------| [X2]
E|-2-----2-2-----------------------10-----10-10---9---7-----7-7---5--|
 | +   -   +   -   +   -   +   -   +    -    +    -   +   -   +   -  |

G|-------------------------------------------------------------------|
D|-------------------------------------------------------------------|
A|-------------------------------------------------------------------|
E|-2-----2-2~---------------------/10-----10-10---9---7-----7-7---5--|
 | +   -   +   -   +   -   +   -   +    -    +    -   +   -   +   -  |

G|-------------------------------------------------------------------|
D|-------------------------------------------------------------------|
A|-----------------7h9-----7h9---------------------------------------|
E|-2-----2-2---7h9-----7h9-----7h9-10-----10-10---9-------7-------5--|
 | +   -   +   -   +   -   +   -   +    -    +    -   +   -   +   -  |


[Riff2] (1:03)
G|-------------------------------------------------------------------|
D|-------------------------------------------------------------------|
A|-------------------------------------------------------------------|
E|-2-----2-2-----------------------10-----10-10---9---7-----7-7---5--|
 | +   -   +   -   +   -   +   -   +    -    +    -   +   -   +   -  |

G|-------------------------------------------------------------------|
D|-------------------------------------------------------------------|
A|-------------------------------------------------------------------|
E|-2~------------------------------10-----10-10---9---7-----7-7---5--|
 | +   -   +   -   +   -   +   -   +    -    +    -   +   -   +   -  |

G|-------------------------------------------------------------------|
D|-------------------------------------------------------------------|
A|-------------------------------------------------------------------|
E|-2-----2-2-----------------------10-----10-10---9---7-----7-7---5--|
 | +   -   +   -   +   -   +   -   +    -    +    -   +   -   +   -  |

G|-------------------------------------------------------------------|
D|---------------------7-----------12-----12-12---11--9-----9-9------|
A|-----------------7h9-----9---7----------------------------------12-|
E|-2-----2-2---7h9---------------------------------------------------|
 | +   -   +   -   +   -   +   -   +    -    +    -   +   -   +   -  |

G|-------------------------------------------------------------------|
D|---------------------7---------------------------------------------|
A|-----------------7h9-----9---7-------------------------------------|    [X4]
E|-2-----2-2---7h9-----------------10-----10-10---9---7-----7-7---5--|
 | +   -   +   -   +   -   +   -   +    -    +    -   +   -   +   -  |

"..are you mine?..." (1:43) the instruments enter later
G|-------------------------------------------------------------------|
D|-------------------------------------------------------------------|
A|-------------------------------------------------------------------|
E|---------------------------------10-----10-10---9---7-----7-7---5--|
 | +   -   +   -   +   -   +   -   +    -    +    -   +   -   +   -  |

G|-------------------------------------------------------------------|
D|-------------------------------------------------------------------|
A|-------------------------------------------------------------------|    [X2]
E|-2-----2-2-----------------------10-----10-10---9---7-----7-7---5--|
 | +   -   +   -   +   -   +   -   +    -    +    -   +   -   +   -  |

G|-------------------------------------------------------------------|
D|-------------------------------------------------------------------|
A|-----------------7h9-----7h9----------------------------7----------|
E|-2-----2-2---7h9-----7h9-----7h9-10-----10-10---9---------------9--|
 | +   -   +   -   +   -   +   -   +    -    +    -   +   -   +   -  |

[Bridge] (2:02)
G|---------------------------------------------------------------------|
D|---------------------------------------------------------------------|
A|---------------------------------------------------------------------|
E|-7-----7-7-----7-7-----7-7---9---10-----10-10-----10-10----10-10--9\-|
 | +   -   +   -   +   -   +   -   +    -    +    -    +   -    +   -  |

G|----------------------------------------------------------------|
D|----------------------------------------------------------------|
A|----------------------------------------------------------------|
E|-2-----2-2-----2-2-----2-2---4---5-----5-5-----5-5-----5-5---5--|
 | +   -   +   -   +   -   +   -   +   -   +   -   +   -   +   -  |

G|-------------------------------------------------------------------|
D|-------------------------------------------------------------------|
A|-------------------------------------------------------------------|
E|-7-----7-7-----7-7-----7-7---9---10-----9-9-----7-7-----5-5-----0--|
 | +   -   +   -   +   -   +   -   +    -   +   -   +   -   +   -    |

2:17
G|---------------------------------------|
D|---------------------------------------|
A|---------------------------------------|
E|-2-2---2-2-----------------------------|
 | +   -   +  -  + - + - + - + - + - + - |

2:22
G|-------------------------------------------------|
D|--------------------------------------9-11-------|
A|-----------------------------------12--------12--|
E|-2-2---2-2---------------------------------------|
 | +   -   +  -  + - + - + - + - +   -    +    -   |

2:27
G|---------------------------------------|
D|---------------------------------------|
A|-9-9---9-9\----------------------------|
E|---------------------------------------|
 | +   -   +  -  + - + - + - + - + - + - |

[Outro] (2:37) small variations on the [Riff1]
G|-------------------------------------------------------------------|
D|-------------------------------------------------------------------|
A|-----------------7h9-9---9---7-------------------------------------|
E|-2-----2-2---7h9-----------------10-----10-10---9---7-----7-7---5--|
 | +   -   +   -   +   -   +   -   +    -    +    -   +   -   +   -  |

G|-------------------------------------------------------------------|
D|-------------------------------------------------------------------|
A|-----------------7h9-9---7h9-9-------------------------------------|
E|-2-----2-2---7h9-----------------10-----10-10---9---7-----7-7---9--|
 | +   -   +   -   +   -   +   -   +    -    +    -   +   -   +   -  |

G|-------------------------------------------------------------------|
D|---------------------7---------------------------------------------|
A|-----------------7h9-----9---7-------------------------------------|
E|-2-----2-2---7h9-----------------10-----10-10---9---7-----7-7---5--|
 | +   -   +   -   +   -   +   -   +    -    +    -   +   -   +   -  |

G|-------------------------------------------------------------------|
D|-------------------------------------------------------------------|
A|-----------------7h9-----7h9---------------------------------------|
E|-2-----2-2---7h9-----7h9-----7h9-10-----10-10---9---7-----7-7---5--|
 | +   -   +   -   +   -   +   -   +    -    +    -   +   -   +   -  |

2:56
G|-------------------------------------------------------------------|
D|-------------------------------------------------------------------|
A|-----------------7h9-9---9-7---------------------------------------|
E|-2-----2-2---7h9-------------9-7-10-----10-10---9---7-----7-7---5--|
 | +   -   +   -   +   -   +   -   +    -    +    -   +   -   +   -  |

G|-------------------------------------------------------------------|
D|-------------------------------------------------------------------|
A|-----------------7h9-9---9-7---------------------------------------|
E|-2-----2-2---7h9-------------9-7-10-----10-10---9---7-----7-9\-----|
 | +   -   +   -   +   -   +   -   +    -    +    -   +   -   +   -  |

G|-------------------------------------------------------------------|
D|-------------------------------------------------------------------|
A|-----------------7h9-----7h9---------------------------------------|
E|-2-----2-2---7h9-----7h9-----7h9-10-----10-10---9---7-----7-7---5--|
 | +   -   +   -   +   -   +   -   +    -    +    -   +   -   +   -  |

G|-------------------------------------------------------------------|
D|-----------------------7-------------------------------------------|
A|-----------------7h9-9---9-7-------------7-------------------------|
E|-2-----2-2---7h9-------------9---10---10---10-9-7-------9-------5--|
 | +   -   +   -   +   -   +   -   +    -    +    -   +   -   +   -  |

[End]
G|---------------------------------------|
D|---------------------------------------|
A|---------------------------------------|
E|-2-2---2-2-----------------------------|
 | +   -   +  -  + - + - + - + - + - + - |



***************************

| /  slide up
| \  slide down
| h  hammer-on
| p  pull-off
| ~  vibrato
| +  harmonic
| x  Mute note

***************************
*** if you liked the tab please leave a positive feedback :)
check out my band at https://www.facebook.com/FitzCataldo ***
Suggest correction
comments
print report bad tab
7 comments total. Showing first comments.
0 reply
raphael.mckinle 10 Nov 18, 2013 10:41 AM

Perfect however there is an easier way that sounds exactly the same it just includes less movement down the frets!

0 reply
rrr3da 155 Nov 22, 2013 12:50 AM

Thank you :)

0 reply
Kaseke 397 Jan 13, 2014 07:21 AM, edited at 12:25 pm

The first time of the outro goes the same as it goes before itG|-------------------------------------------------------------------|D|---------------------7---------------------------------------------|A|-----------------7h9-----9---7-------------------------------------|E|-2-----2-2---7h9-----------------10-----10-10---9---7-----7-7---5--| | + - + - + - + - + - + - + - + - |like that :)

and these notes here should be an octave higher

2:27
G|---------------------------------------|
D|---------------------------------------|
A|-9-9---9-9\----------------------------|
E|---------------------------------------|
| + - + - + - + - + - + - + - + - |

2:27
G|-11-11---11-11\-------------------------|
D|---------------------------------------|
A|---------------------------------------|
E|---------------------------------------|
| + - + - + - + - + - + - + - + - |

guest
You may want to rate the tab now too:
select rating
Wanna post a correction for this tab? Suggest correction