Oops, an error
Loading. Please wait.

R U Mine Tab

version 2
version 2
520,245 views 1,992 this week
18 commentsread comments
1 2 3 4 5
excellent!
x 84
add to favorites
launch autoscroll
font size
0
reset
how to read this tab
guitar tuner
Autoscroll
slow
fast
+/-
esc
set tempo
stop
Help us to improve Ultimate-Guitar.com Take our survey!
×
Author
Difficulty
intermediate
[Intro riff]

e|-------------------------------|
B|-------------------------------|
G|-------------------------------|
D|-------------------------------| x4
A|-------/4-2-4-5-5-5-4-2-14-----|
E|-2-2-2-------------------------|


[Verse]

e|--------------------------------------------------------------|
B|--------------------------------------------------------------|
G|----------------2---------------------------------------------|
D|------------2h4---4-2-----------------------------------------| x4
A|--------2h4------------5-5-5-4-2-2-2-0------------------------|
E|-2-2-2--------------------------------------------------------|


[chorus]

R U Mine?
e|-------------------------------|
B|-------------------------------|
G|-------------------------------|
D|-------------------------------| x3
A|--------------5-5-5-4-2-2-2-0--|
E|-2-2-2-------------------------|

e|------------------------------------------------|
B|------------------------------------------------|
G|---------------------------------------4-2------|
D|-------------2h4-----2h4---------------4-2-4----|
A|---------2h4-----2h4-----2-4-5-5-5-4---2-0-4----|
E|-2-2-2-------------------------------------2----| 


e|--------------------------------------------------------------|
B|--------------------------------------------------------------|
G|----------------2---------------------------------------------|
D|------------2h4---4-2-----------------------------------------| x4
A|--------2h4------------5-5-5-4-2-2-2-0------------------------|
E|-2-2-2--------------------------------------------------------|


[chorus]

R U Mine?
e|-------------------------------|
B|-------------------------------|
G|-------------------------------|
D|-------------------------------| x3
A|--------------5-5-5-4-2-2-2-0--|
E|-2-2-2-------------------------|

e|------------------------------------------------|
B|------------------------------------------------|
G|---------------------------------------4-2------|
D|-------------2h4-----2h4---------------4-2-4----|
A|---------2h4-----2h4-----2-4-5-5-5-4---2-0-4----|
E|-2-2-2-------------------------------------2----| 


[Bridge]

e|-------------|
B|-------------|
G|-9--6--------|
D|-9--6--------|
A|-7--4--------|
E|-------------|

In the foot of the chase..                 Just wanna say you got me baby, are you mine? 
e|-------------------------------------------------------------|
B|-------------------------------------------------------------|
G|-4-4-4-6-7-7-------------------------------------------------|
D|-4-4-4-6-7-7-4-4-7-7-9--------------12-11-9-7-4--------------|
A|-2-2-2-4-5-5-4-4-7-7-9--------------12-11-9-7-4--------------|
E|-------------2-2-5-5-7--------------10-9--7-5-2--------------|


[Solo]

e|-----------------------------------------------------------------------|
B|-----------------7-10-10b12-12-----------------------------------------|
G|-------------6-9---------------9b11-9----------------------------------|
D|---------7-9-----------------------------------------------------------|
A|-----7-9-----------------------------------------------------5-5-5-4-2-|
E|--7-9-----------------------------------2-2-2---5h7p5h7p5--------------|

e|-------------------|
B|-------------------|
G|-------------------|
D| -----------4-4-4--|
A|-0-2-4-0---4-4-4---|
E| -----------2-2-2--|


[Verse]

e|--------------------------------------------------------------|
B|--------------------------------------------------------------|
G|----------------2---------------------------------------------|
D|------------2h4---4-2-----------------------------------------| x4
A|--------2h4------------5-5-5-4-2-2-2-0------------------------|
E|-2-2-2--------------------------------------------------------|

End chorus

e|--------------------------------|
B|--------------------------------|
G|--------------7-7-7-7-4-4-4-4---|
D|--4-4-4-4-4--7-7-7-7-4-4-4-4----|
A|--4-4-4-4-4--5-5-5-5-2-2-2-2----|
E|--2-2-2-2-2---------------------| x3

Fourth time: 

e|---------------------------------------------------|
B|---------------------------------------------------|
G|-----------------2------------2----------7-2-------|
D|--4-4-4------2h4--4-2-----2h4--4-2-------7-2--4-4-4|
A|--4-4-4--2h4----------4-2-----------4-2--4-0--4-4-2|
E|--2-2-2---------------------------------------2-2-2| 


******************

| /  slide up
| h  hammer-on
| p  pull-off
| x  Mute note

******************
Suggest correction
comments
print report bad tab
18 comments total. Showing first comments. show 1 bad comment
0 reply
andresrvillar 10 wrote on November 24 2013, 01:14 pm

Great tabs, thanks..

0 reply
Abhiyon 10 wrote on May 2 2014, 04:30 am

What does the b in the solo stand for ?

guest
You may want to rate the tab now too:
select rating
Please do not post tabs as comments. Select "correction" instead!