Oops, an error
Loading. Please wait.

Reckless Serenade Tab

version 1
version 1

Whole song

Interactive

70,462 views 102 this week
8 commentsread comments
1 2 3 4 5
excellent!
x 17
add to favorites
launch autoscroll
font size
0
reset
how to read this tab
guitar tuner
Autoscroll
slow
fast
+/-
esc
set tempo
stop
Help us to improve Ultimate-Guitar.com Take our survey!
×
Author
Xnimez 1,648
------------------------------------------------------------------------------
	   Arctic Monkeys - Reckless Serenade
------------------------------------------------------------------------------
Tabbed by: Tim van Kester

  I tried to tab Reckless Serenade, a song by the Arctic Monkeys. Tabbing
  chords was quite hard for me this time, so there will be some mistakes
  there. Guitar one is Jamie, Alex is guitar two. I think I made that clear 
  in the tab. He plays the chords, but also plays some sort of solo near the
  end of the song.



  "I've been trying to figure out..."
e|---7---------------3----------------7---------2--3--5~----7----------------|
B|-7-----3~---(3)--3------7~---(7)--7---7--5~---3--5--7~------7---5~--5p3----|
G|---------------------------------------------------------------------------|
D|---------------------------------------------------------------------------|
A|---------------------------------------------------------------------------|
E|---------------------------------------------------------------------------|

e|-7--5~---3--2--3~----------------------------------------------------------|
B|-8--7~---5--3--5~----------------------------------------------------------|
G|---------------------------------------------------------------------------|
D|---------------------------------------------------------------------------|
A|---------------------------------------------------------------------------|
E|---------------------------------------------------------------------------|

  "The type of kisses..."
e|---3--------5----|----|----3--------5---7---5--|
B|-5---5-5/7----7--|-x3-|--5---5-5/7----7---7---7|
G|-----------------|----|------------------------|
D|-----------------|----|------------------------|
A|-----------------|----|------------------------|
E|-----------------|----|------------------------|

e|------5---|----3--------5----|----3--------5---7---5-----------------------|
B|-5/7----7-|--5---5-5/7----7--|--5---5-5/7----7---7---7---------------------|
G|----------|__________________|---------------------------------------------|
D|-------------------x2------------------------------------------------------|
A|---------------------------------------------------------------------------|
E|---------------------------------------------------------------------------|
  Play this last bar three times...
			

  "I've been trying to figure out..."
e|--------3------------7---------2--3--5~----7-------------7--5~--3--2--3~---|
B|-3~---3------7~----7---7--5~---3--5--7~------7--5~--5p3--8--7~--5--3--5~---|
G|---------------------------------------------------------------------------|
D|---------------------------------------------------------------------------|
A|---------------------------------------------------------------------------|
E|---------------------------------------------------------------------------|
  (Second bar is Alex, he starts playing here)
e|-------------------------------------------------------------2-------------|
B|-------------3-----------------------------------------------3------------2|
G|-4-----------4------------3----------4-----------4-----------2------------2|
D|-5-----------4------------4----------5-----------5-----------0--------2---2|
A|-5-----------2------------4----------5-----------5--------------------2---0|
E|-3------------------------2----------3-----------3--------------------0----|



e|---3--------5---|----|---3------------|
B|-5---5-5/7----7-|-x3-|-5---5-6~-------|
G|----------------|----|----------------|
D|--------------------------------------|
A|--------------------------------------|
E|--------------------------------------|

e|-------------------------------------------------|
B|-------------------------------------------------|
G|-4--x-4--4-4---7--x-7--7-7-----------------------|
D|-4--x-4--4-4---7--x-7--7-7---5--x-5--5-5---8~----|
A|-2--x-2--2-2---5--x-5--5-5---5--x-5--5-5---8~----|
E|-----------------------------3--x-3--3-3---6~----|



e|-7-7-7-7-7-7---7--7-7-7-7-7----3-3---5-5---10~-----------------------------|
B|-7-7-7-7-7-7---9--9-9-9-9-9----3-3---5-5---10~-----------------------------|
G|---------------------------------------------------------------------------|
D|---------------------------------------------------------------------------|
A|---------------------------------------------------------------------------|
E|---------------------------------------------------------------------------|

e|---------------------------------------------------------------------------|
B|-7-7-7-7-7-7-------------------------------7~------------------------------|
G|-7-7-7-7-7-7-------------------------------7~------------------------------|
D|-7-7-7-7-7-7---6--6-6-6-6-6----5-5---7-7---7~------------------------------|
A|-5-5-5-5-5-5---6--6-6-6-6-6----5-5---7-7---5~------------------------------|
E|---------------4--4-4-4-4-4----3-3---5-5-----------------------------------|


  
e|---------------------------------------------------------------------------|
B|---------------------------------------------------------------------------|
G|---------------------------------------------------------------------------|
D|---------------------------------------------------------------------------|
A|---------------------------------------------------------------------------|
E|---------------------------------------------------------------------------|

e|-2-2-2-2-2---5---7-7---2--2-2----7-7-7-7-7--5--2--2-2-0--2-2---|----|------|
B|-3-3-3-3-3---7---8-8---3--3-3----8-8-8-8-8--7--3--3-3-3--3-3---|-x2-|------|
G|---------------------------------------------------------------|----|------|
D|---------------------------------------------------------------------------|
A|---------------------------------------------------------------------------|
E|---------------------------------------------------------------------------|



e|---------------------------------------------------------------------------|
B|---------------------------------------------------------------------------|
G|---------------------------------------------------------------------------|
D|---------------------------------------------------------------------------|
A|---------------------------------------------------------------------------|
E|--10---10---2---2--7-7-7---2--2-2----3-3-3-3-3----5----10~-----------------|

e|---------9---------5---------9---------5---------9---------5---3-2---0---2-|
B|-7/10-12---12p10\7---7/10-12---12p10\7---7/10-12---12p10\7---5-----3---3---|
G|---------------------------------------------------------------------------|
D|---------------------------------------------------------------------------|
A|---------------------------------------------------------------------------|
E|---------------------------------------------------------------------------|
  
  Play this two times. Alex will sing again from the next part.

e|---------------------------------------------------------------------------|
B|---------------------------------------------------------------------------|
G|---------------------------------------------------------------------------|
D|---------------------------------------------------------------------------|
A|---------------------------------------------------------------------------|
E|--10---10---2---2--7-7-7---2--2-2----3-3-3-3-3----5----10~-----------------|

e|-2---0---2---3----|----|-0---0--------------------12----14----12----9------|
B|---3---3---3---3--|-x3-|---7---7-7/10-------12-15----15----15----15---12-10|
G|------------------|----|--------------11/14--------------------------------|
D|---------------------------------------------------------------------------|
A|---------------------------------------------------------------------------|
E|---------------------------------------------------------------------------|



e|---------------------------------------------------------------------------|
B|---------------------------------------------------------------------------|
G|---------------------------------------------------------------------------|
D|---------------------------------------------------------------------------|
A|---------------------------------------------------------------------------|
E|--10---10---2---2--7-7-7---2--2-2----0-0-0-0-0-0-0-0-3-3-3-3-3-3-3-3--10~--|

e|-7---7---7---7---7---7---7-10---10---10---10-------------------------------|
B|---7---7---8---8---8---8------8----8----8----8--7\-------------------------|
G|------------------------------------------------7\-------------------------|
D|---------------------------------------------------------------------------|
A|---------------------------------------------------------------------------|
E|---------------------------------------------------------------------------|





************************************

| /   slide up
| \   slide down
| h   hammer-on
| p   pull-off
| ~   vibrato
| +   harmonic
| x   Mute note
| b   Bend
| pb  Pre-bend
| br  Bend release
| pbr Pre-bend release
| brb Bend release bend

************************************
Suggest correction
What's this?
You can suggest a correction to this tab. Community and Mods will review your correction and vote to approve or reject it.
comments
print report bad tab
8 comments total. Showing first comments.
0 reply
gbouras 11 wrote on June 17 2011, 01:33 pm

Do you know the chords? They'd be really helpful, thanks.

0 reply
Xnimez 1,648 wrote on June 17 2011, 04:26 pm

Nope, sorry. I just watched the Jools Holland performance and this is what I saw. Alex doesn't play any chords until 1:22 or something.

0 reply
Shyscope 103 wrote on June 18 2011, 12:50 am

this is amazing

guest
You may want to rate the tab now too:
select rating
Please do not post tabs as comments. Select "correction" instead!