Oops, an error
Loading. Please wait.

Red Light Indicates Doors Are Secure tab

17,623 views 6 this week
3 commentsread comments
1 2 3 4 5
x 4
add to favorites
×
Save as Personal and add changes to this tab that will be seen only by you. Learn more ›
×
You can save this tab as Personal to edit and correct it or add notes. All changes will be seen only by you. Learn more »
launch autoscroll
font size
0
reset
how to read this tab
guitar tuner
edit
Autoscroll
slow
fast
+/-
esc
set tempo
stop
Author
Difficulty
-------------------------------------------------------------------------------
           Arctic Monkeys - Red Light Indicates Doors Are Secured
-------------------------------------------------------------------------------
Tabbed by: Andy Wilkinson
Email: zerogravity2003@hotmail.com

Tuning: standard

Riff 1:
e|-----------------|
B|-----------------|
G|-----------------|
D|-----------------|
A|-------0-5-4-2p0-| a few times
E|-2-2-2-----------|
e|-----------------|

then they mix the first riff with this one:

Riff 2:
e|--------------|
B|--------------|
G|--------------|
D|-------4------|
A|---0-4---5-2p0|
E|-2------------|
e|--------------|

until: 'came and paid for her tropical reef...'
then it's

e|-------------------------------------------------|
B|-------------------------------------------------|
G|-------------------------------------------------|
D|-----------------------------------------2-2-3-3-|
A|-2-2-2-2-2-2-2-2-0-0-0-0-0-0-0-0-2-2-2-2---------|
E|-------------------------------------------------|

with the chords:

B
Sitting going backwards
A
And I didn't want to leave
B
I said it's High Green mate
E   F
Via Hillsborough please 


and it pretty much repeats riffs 1 and 2 until the next chorus


| /  slide up
| \  slide down
| h  hammer-on
| p  pull-off
| ~  vibrato
| +  harmonic
| x  Mute note
===============================================================================

            
            
Suggest correction
Creating personal tab
Creating personal tab
You can edit any tab online and save it as your Personal.

You can edit, replace or remove any tab part or add personal notes – all changes will be seen only by you.

Personal tabs can be accessed anytime from any device, even offline.
Learn more »
comments
print report bad tab
3 comments total.
0 reply
gero13 10 May 12, 2007 09:00 AM

its not bad but theres a couple of mistakes.....

Riff 1
e|-----------------|
B|-----------------|
G|-----------------|
D|-----------------|
A|-------0-5-4-2p0-|
E|-2-2-2-----------|

Is actually =
e|-----------------|
B|-----------------|
G|-----------------|
D|-----------------|
A|-------0-5--4----|
E|-2-2-2-------5-4-|

And where did u get riff 2 from.........thats the bass line....

good attempt though.....

0 reply
erasermcfleafly 16 Oct 11, 2007 11:53 AM

to gero13 regarding riff 2:

the guitar plays that riff in the outro.

0 reply
|Guitarhead| 268 Oct 06, 2008 11:32 AM

not too bad, but very short and loads of mistakes.

guest
You may want to rate the tab now too:
select rating
Wanna post a correction for this tab? Suggest correction