Oops, an error
Loading. Please wait.

Red Right Hand bass

version 2
version 2

Whole song

Interactive

5,431 views 12 this week
no commentswrite comment
1 2 3 4 5
x 5
add to favorites
×
Save as Personal and add changes to this tab that will be seen only by you. Learn more ›
×
You can save this tab as Personal to edit and correct it or add notes. All changes will be seen only by you. Learn more »
launch autoscroll
font size
0
reset
guitar tuner
edit
Autoscroll
slow
fast
+/-
esc
set tempo
stop
Verse

G|---------------------------------------------------------------------------|
D|---------------------------------------------------------------------------| X4
A|-2--2-2---5--5-5-5----2--2-2---5--5-5-5----2--2-2---5--5-5-5---------------|
E|---------------------------------------------------------------------------|

Pre Chorus

G|----------5-4--------------5-4--------------5-4------------------------------|
D|-2--2-2-------5----2--2-2------5-----2--2-2-----5---------2--4--5--7---------|
A|-----------------------------------------------------------------------------|
E|-----------------------------------------------------------------------------|

Verse

G|-----------------------------------------------------------------------------------|
D|-----------------------------------------------------------------------------------|
A|-2--2-2---5--5-5-5----2--2-2---5--5-5-5----2--2-2---5--5-5-5----2--2-2---5--5-5-5--|
E|-----------------------------------------------------------------------------------|

Chorus

G|---------------------------------------------------------------------------|
D|-4-4-4-4-4-4--4-4--4-4-----------------------------------------------------|
A|--------------------------7---7-----7-----7-----7-----7-----7-----7--------|
E|---------------------------0-0---0-0---0-0---0-0---0-0---0-0---0-0---0-0---|

Back to Verse

Verse

G|---------------------------------------------------------------------------|
D|---------------------------------------------------------------------------| X4
A|-2--2-2---5--5-5-5----2--2-2---5--5-5-5----2--2-2---5--5-5-5---------------|
E|---------------------------------------------------------------------------|

Pre Chorus

G|----------5-4--------------5-4--------------5-4----------------------------|
D|-2--2-2-------5----2--2-2------5-----2--2-2-----5---------2--4--5--7-------|
A|---------------------------------------------------------------------------|
E|---------------------------------------------------------------------------|

Verse

G|-----------------------------------------------------------------------------------|
D|-----------------------------------------------------------------------------------|
A|-2--2-2---5--5-5-5----2--2-2---5--5-5-5----2--2-2---5--5-5-5----2--2-2---5--5-5-5--|
E|-----------------------------------------------------------------------------------|

Chorus

G|---------------------------------------------------------------------------|
D|-4-4-4-4-4-4--4-4--4-4-----------------------------------------------------|
A|--------------------------7---7-----7-----7-----7-----7-----7-----7--------|
E|---------------------------0-0---0-0---0-0---0-0---0-0---0-0---0-0---0-0---|

Bass Does Nothing this Verse Comes in on Pre Chorus

Pre Chorus

G|----------5-4--------------5-4--------------5-4----------------------------|
D|-2--2-2-------5----2--2-2------5-----2--2-2-----5---------2--4--5--7-------|
A|---------------------------------------------------------------------------|
E|---------------------------------------------------------------------------|

Verse

G|-----------------------------------------------------------------------------------|
D|-----------------------------------------------------------------------------------|
A|-2--2-2---5--5-5-5----2--2-2---5--5-5-5----2--2-2---5--5-5-5----2--2-2---5--5-5-5--|
E|-----------------------------------------------------------------------------------|

Chorus

G|---------------------------------------------------------------------------|
D|-4-4-4-4-4-4--4-4--4-4-----------------------------------------------------|
A|--------------------------7------------------------------------------------|
E|---------------------------------------------------------------------------|

Pause Back To Verse

Verse

G|---------------------------------------------------------------------------|
D|---------------------------------------------------------------------------| X4
A|-2--2-2---5--5-5-5----2--2-2---5--5-5-5----2--2-2---5--5-5-5---------------|
E|---------------------------------------------------------------------------|

Pre Chorus

G|----------5-4--------------5-4--------------5-4------------------------------|
D|-2--2-2-------5----2--2-2------5-----2--2-2-----5---------2--4--5--7---------|
A|-----------------------------------------------------------------------------|
E|-----------------------------------------------------------------------------|

Verse

G|-----------------------------------------------------------------------------------|
D|-----------------------------------------------------------------------------------|
A|-2--2-2---5--5-5-5----2--2-2---5--5-5-5----2--2-2---5--5-5-5----2--2-2---5--5-5-5--|
E|-----------------------------------------------------------------------------------|

Chorus

G|---------------------------------------------------------------------------|
D|-4-4-4-4-4-4--4-4--4-4-----------------------------------------------------|
A|--------------------------7---7-----7-----7-----7-----7-----7-----7--------|
E|---------------------------0-0---0-0---0-0---0-0---0-0---0-0---0-0---------|

Verse

G|-----------------------------------------------------------------------------------|
D|-----------------------------------------------------------------------------------|
A|-2--2-2---5--5-5-5----2--2-2---5--5-5-5----2--2-2---5--5-5-5----2--2-2---5--5-5-5--|
E|-----------------------------------------------------------------------------------|

Breakdown

G|-----------------------------------------------------------------------------------|
D|-----------------------------------------------------------------------------------|
A|-2-2-----2-2----2-2----2-2---------------------------------------------------------|
E|-----3-------3------3------3-------------------------------------------------------|

Verse Slight Distortion

Verse

G|---------------------------------------------------------------------------|
D|---------------------------------------------------------------------------| X5
A|-2--2-2---5--5-5-5----2--2-2---5--5-5-5----2--2-2---5--5-5-5---------------|
E|---------------------------------------------------------------------------|

Pre Chorus

G|----------5-4--------------5-4--------------5-4------------------------------|
D|-2--2-2-------5----2--2-2------5-----2--2-2-----5---------2--4--5--7---------|
A|-----------------------------------------------------------------------------|
E|-----------------------------------------------------------------------------|

BreakDown 2

G|------------------------------------------------------------------------------|
D|------------------------------------------------------------------------------|
A|-2--2--2--2-------------------------------------------------------------------|
E|------------------------------------------------------------------------------|

Chorus

G|---------------------------------------------------------------------------|
D|-4-4-4-4-4-4--4-4--4-4-----------------------------------------------------|
A|--------------------------7---7-----7-----7-----7-----7-----7-----7--------|
E|---------------------------0-0---0-0---0-0---0-0---0-0---0-0---0-0---------|

Breakdown

G|-----------------------------------------------------------------------------------|
D|-----------------------------------------------------------------------------------|
A|-2-2-----2-2----2-2----2-2---------------------------------------------------------|
E|-----3-------3------3------3-------------------------------------------------------|

            
            
Suggest correction
Creating personal tab
Creating personal tab
You can edit any tab online and save it as your Personal.

You can edit, replace or remove any tab part or add personal notes – all changes will be seen only by you.

Personal tabs can be accessed anytime from any device, even offline.
Learn more »
comments
print report bad tab
guest
Wanna post a correction for this tab? Suggest correction