Oops, an error
Loading. Please wait.

Settle For A Draw Tab

version 1
version 1

Intro

Whole song

Interactive

8,553 views 3 this week
1 commentread comment
1 2 3 4 5
please rate
add to favorites
launch autoscroll
font size
0
reset
how to read this tab
guitar tuner
Autoscroll
slow
fast
+/-
esc
set tempo
stop
Help us to improve Ultimate-Guitar.com Take our survey!
×
Author
Difficulty
novice
Arctic Monkeys

Settle for a draw (Intro)


E|------------------------------------------------------------|
B|-----------------------9-9----------------------------------|
G|-8-8--6-6--8-8--11-11-------11-11--8-8--6-6--8~~--8~~-------|  X2
D|------------------------------------------------------------|
A|------------------------------------------------------------|
E|------------------------------------------------------------|

Third time
E|------------------------------------------------------------|
B|-----------------------9-9----------------------------------|
G|-8-8--6-6--8-8--11-11-------11-11--8-8--6-6~----------------|
D|------------------------------------------------------------|
A|------------------------------------------------------------|
E|------------------------------------------------------------|
Suggest correction
Give kudos to tab author, rate the tab!
1 2 3 4 5
comments
print report bad tab
1 comment total.
+2 reply
shaggy-mess 51 wrote on April 5 2009, 12:47 pm

E|------------------------------------------------------------|
B|----------------7-7--9-9--7-7-----------------------------|
G|-8-8--6-6--8-8-----------------8-8--6-6--8~~--8~~-------| X2
D|------------------------------------------------------------|
A|------------------------------------------------------------|
E|------------------------------------------------------------|

Personally playing the 7's makes it much easier to play. Keeps your hand in one place. Great tab though.

guest
You may want to rate the tab now too:
select rating
Wanna post a correction for this tab? Suggest correction