Oops, an error
Loading. Please wait.

Settle For A Draw solo tab

version 1
version 1

Whole song

Interactive

6,351 views 3 this week
3 commentsread comments
1 2 3 4 5
x 6
add to favorites
×
Save as Personal and add changes to this tab that will be seen only by you. Learn more ›
×
You can save this tab as Personal to edit and correct it or add notes. All changes will be seen only by you. Learn more »
launch autoscroll
font size
0
reset
how to read this tab
guitar tuner
edit
Autoscroll
slow
fast
+/-
esc
set tempo
stop
Difficulty
Arctic Monkeys - Settle for a draw solo

This is my first tab!

I love this song, especially this solo. Couldn’t find it anywhere else, so I tabbed it!

|--------------------------------------------------------------------------------------|
|--------------------------------------------------------------------------------------|
|----8-6---6---------------------------------------------8-6---6-----------------------|
|---------8---4-6--4-6-4--8-8-8-8--4-6-6-7^-6-4--------8---4-6--4-6-4--8-8-8-8--4-6-6--|
|-6----------------------------------------------------6-------------------------------|
|--------------------------------------------------------------------------------------|

|----------------------------------------------------------------------|
|----------------7--7-9-7-9-11-7---------------------------------------|
|--------------8--8-----------------8--8-8-6-8-6-----------------------|
|-6-6-8-6-8---------------------------------------8-6-4-6--------------|
|---------------------------------------------------------------6---4--|
|----------------------------------------------------------------------|


|---------------------------------------------------------------------------------------|
|--11----------11---------------11-11-11------------------------9----11-11-11-11-9------|
|-------11--8------11--8--11---------------11-8-11-11-11-11--11-------------------11-8--|
|---------------------------------------------------------------------------------------|
|---------------------------------------------------------------------------------------|
|---------------------------------------------------------------------------------------|

Arctic Monkeys Rule!

            
            
Suggest correction
Creating personal tab
Creating personal tab
You can edit any tab online and save it as your Personal.

You can edit, replace or remove any tab part or add personal notes – all changes will be seen only by you.

Personal tabs can be accessed anytime from any device, even offline.
Learn more »
comments
print report bad tab
3 comments total.
+2 reply
tim33 10 Aug 13, 2007 10:58 AM

nice one :)!
i think there might be a few mistakes though, i based it on what you did and i got...

|-----------------------------------------------------|
|-----------------------------------------------------|
|----8-6----------------------------------------------|
|---------8-6-4-6---4-6-4---8-8-8--8-6-4--6-6--6-7^-4-|
|-6---------------------------------------------------|
|-----------------------------------------------------|

|--------------------------------------------------------|
|--------------------------------------------------------|
|----8-6---------------------------------------------6---|
|---------8-6-4-6---4-6-4---8-8-8--8-6-4--6-6-6--6-8---8-|
|-6------------------------------------------------------|
|--------------------------------------------------------|

|----------------------------------------------------------|
|---7--7-9-7-9---11-7--------------------------------------|
|-8--8----------------8---8-8-6-8-6------------------------|
|-------------------------------------8-6-4-6--------------|
|---------------------------------------------------6---4--|
|----------------------------------------------------------|


|----------------------------------------------------------------------------------------|
|--11--------11-----------11-11-11-------------------------------------------------------|
|-----11-8------11-8-11------------11-8-11---11-11-11--13-11---15-15-15--15-13--11-----8-|
|----------------------------------------------------------------------------------------|
|----------------------------------------------------------------------------------------|
|----------------------------------------------------------------------------------------|

0 reply
bobbybunn 31 Nov 28, 2007 06:19 AM

what was the correction

good tab btw!!!

0 reply
shaggy-mess 51 Apr 05, 2009 12:01 PM

just laid it out better i tihnk. some of the numbers cross on the one above.

guest
Wanna post a correction for this tab? Suggest correction