Oops, an error
Loading. Please wait.

Space Invaders tab

version 1
version 1

Whole song

7,746 views 6 this week
1 commentread comment
1 2 3 4 5
x 4
add to favorites
×
Save as Personal and add changes to this tab that will be seen only by you. Learn more ›
×
You can save this tab as Personal to edit and correct it or add notes. All changes will be seen only by you. Learn more »
launch autoscroll
font size
0
reset
how to read this tab
guitar tuner
edit
Autoscroll
slow
fast
+/-
esc
set tempo
stop
Author
Difficulty
-----------------------------------------------------------
Space Invaders - Arctic Monkeys
-----------------------------------------------------------

Tabbed by: man_overboard01      
Email: man_overboard01@hotmail.com

Tuning: Standard (EADGBE)

Intro:
E|----------------------------------------------------------------|
B|----------------------------------------------------------------|
G|------0---------------------------------------------------------|
D|---------12--x-x-12--x-x-x-x-15~--14-12--x-x-12-----------3h5-3-|
A|-2b------12--x-x-12--x-x-x-x-15~--14-12--x-x-12--------3h5------|
E|----0----10--x-x-10--x-x-x-x-13~--12-10--x-x-10-\\\-3h5---------|

E|----------------------------------------------------------------|
B|----------------------------------------------------------------|
G|-7--x-x-7--x-x-x-x-10~-9-7--x-x-----------------10b12~----------|
D|-7--x-x-7--x-x-x-x-10~-9-7--x-x-7-(7)-///-12--12----------------|
A|-5--x-x-5--x-x-x-x-8~--7-5--x-x-------------12------------------|
E|----------------------------------------------------------------|




Verse (“Space Invaders flyin’ home...”):
E|--------------------------------------------------------|
B|--------------------------------------------------------|
G|--------------------------------------------------------|
D|-12--x-x-12--x-x-x-x-15~--14-12--x-x-12-----------3h5-3-|
A|-12--x-x-12--x-x-x-x-15~--14-12--x-x-12--------3h5------|
E|-10--x-x-10--x-x-x-x-13~--12-10--x-x-10-\\\-3h5---------|

E|--------------------------------------------------------|
B|--------------------------------------------------------|
G|-7-x-7-x-7-x-7-x-7-x-7-------------10b------------------|
D|-7-x-7-x-7-x-7-x-7-x-7-7-///-12--12---------------------|
A|-5-x-5-x-5-x-5-x-5-x-5---------12-----------------------|
E|--------------------------------------------------------|

E|--------------------------------------------------------|
B|--------------------------------------------------------|
G|--------------------------------------------------------|
D|-12--x-x-12--x-x-x-x-15~--14-12--x-x-12-----------3h5-3-|
A|-12--x-x-12--x-x-x-x-15~--14-12--x-x-12--------3h5------|
E|-10--x-x-10--x-x-x-x-13~--12-10--x-x-10-\\\-3h5---------|

E|-----------------------------------------------------------|
B|-----------------------------------------------------------|
G|-7--x-x-7--x-x-7--x-x-7--x-x-7--x-x-------x-b12(14)12-10---|
D|-7--x-x-7--x-x-7--x-x-7--x-x-7--x-x-//-12---------------12-|
A|-5--x-x-5--x-x-5--x-x-5--x-x-5--x-x------------------------|
E|-----------------------------------------------------------|

The rest of the song pretty much follows the same pattern, just without harmonics in the chorus.
Suggest correction
Creating personal tab
Creating personal tab
You can edit any tab online and save it as your Personal.

You can edit, replace or remove any tab part or add personal notes – all changes will be seen only by you.

Personal tabs can be accessed anytime from any device, even offline.
Learn more »
comments
print report bad tab
1 comment total.
0 reply
guitar-core 10 Jul 07, 2008 09:52 AM

C'mon theres a million rifs in the song u've 3

guest
You may want to rate the tab now too:
select rating
Wanna post a correction for this tab? Suggest correction