Oops, an error
Loading. Please wait.

Still Take You Home Tab

version 1
version 1

Solo

Whole song

Interactive

38,077 views 21 this week
3 commentsread comments
1 2 3 4 5
worth learning
x 4
add to favorites
launch autoscroll
font size
0
reset
how to read this tab
guitar tuner
Tab Pro tools
  • play this tab
  • loop segment
  • change instrument
  • show fretboard
  • metronome
Autoscroll
slow
fast
+/-
esc
set tempo
stop
Contributor
Arctic Monkeys - Still Take You Home

Riff 1:
e------------|
B------------|
G------------|
D------------|
A-1-1-1--5-4-|
E------------|

Riff 2:
e---------------------------------|
B---------------------------------|
G-3-3-3-3-3-3-3-3--8-8-8-8--11-10-|
D-3-3-3-3-3-3-3-3--8-8-8-8--11-10-|
A-1-1-1-1-1-1-1-1--6-6-6-6---9--8-|
E---------------------------------|

Intro:
Riff 1 x12
Riff 2 x4

Verse:
Riff 2 x4

Chorus:
e---------------------------------------------------------|
B---------------------------------------------------------|
G-8--8--8--8--6--6--6--6--3-3-3-3-3-3-3-3-3-3-3-3-3-3-3-3-|
D-8--8--8--8--6--6--6--6--3-3-3-3-3-3-3-3-3-3-3-3-3-3-3-3-|
A-6--6--6--6--4--4--4--4--1-1-1-1-1-1-1-1-1-1-1-1-1-1-1-1-|
E---------------------------------------------------------|

e---------------------------|
B---------------------------|
G-8--8--8--8--6--6--6--6--3-|
D-8--8--8--8--6--6--6--6--3-|
A-6--6--6--6--4--4--4--4--1-|
E---------------------------|

Bridge
e-----------------------------|
B-----------------------------|
G-----3-3-1-1-----------------|
D-------------3---------------|
A-1-1-----------6-6-9-9-9-8-8-|
E-----------------------------|

Solo (play Bridge)
Chorus (quiet)
Riff 1 x12

End on:
e---
B---
G-3-
D-3-
A-1-
E---
comments
print report bad tab
3 comments total.
0 reply
dave_mullen wrote on November 29 2005, 04:11 pm

Not a bad tab that Holgers.
very good infact.

A|-------5-4---------
E|-6-6-6-------------

The intro is easier to play like this i think, well this is how Alex plays it.

0 reply
Briscoe06 wrote on September 2 2006, 10:45 am

THE INTRO IS WRONG I HAV DA TAB BOOK THIS IS THE INTRO
--------------------
--------------------
-------------------- x5 THEN
--------------------
-------5-4----------
--66----------------

---------------------
---------------------
---------------------
---------------------
-------5-4-----------
--66-------5---------

EVERY SO OFTEN HE PLAYS THAT

0 reply
dannn92 wrote on January 3 2008, 12:33 pm

Riff
2:
e-----|
B-----|
G-----8-8-8-8--11-10-|
D-8-8
-8-8-8-8-8-8--8-8-8-8--11
-10-|
A-8-8-8-8-8-8-8-8--6-6-6-
6---9--8-|
E-6-6-6-6-6-6-6-6-----|


listen to
song for rhythm, turner and cook play slightly different rhythms but it dont make much difference.

I want to post or [tab]
guest
You may want to rate the tab now too:
select rating
Please do not post tabs as comments. Select "correction" instead!