Oops, an error
Loading. Please wait.
We have an official Still Take You Home tab made by UG professional guitarists. Check out the tab »
×
8,527 views 3 this week
6 commentsread comments
1 2 3 4 5
x 13
add to favorites
×
Save as Personal and add changes to this tab that will be seen only by you. Learn more ›
×
You can save this tab as Personal to edit and correct it or add notes. All changes will be seen only by you. Learn more »
launch autoscroll
font size
0
reset
how to read this tab
guitar tuner
backing track
0:00
0:00
edit
Autoscroll
slow
fast
+/-
esc
set tempo
stop
Author
Arctic Monkeys - Still Take You Home
Ryan.c

Great song by one of the best bands of our generation. Pretty easy to play but listen
to the timing  to get it right, cus that second solo is a bitch. As always Send your
suggestion to chhang7@hotmail.com 


e------------|
B------------|
G------------|
D--8-8-12-11-|
A--8-8-12-11-|
E--6-6-10-9--|

e-----------------------------------------------|
B-----------------------------------------------|
G-----------------------------------------------|
D--8-8-8-6---------6--------------------6-------|
A----------8-8-6-8----6-8-8--6-8-8--6-8---6-8-6-|
E-----------------------------------------------|

e----------------------------------------|
B----------------------------------------|
G----------------------------------------|
D--------------------6-8-6-8--6-8-8-8/6--|
A----6-8---6-8----6----------------------|
E--9-----9------9------------------------|



Verse
e----------------------------------|
B----------------------------------|
G-------------------8-8-8-8--11-10-|
D--8-8-8-8-8-8-8----8-8-8-8--11-10-|
A--8-8-8-8-8-8-8----6-6-6-6---9--8-|
E--6-6-6-6-6-6-6-------------------|


Verse:
Riff 2 x4

Chorus:
1 guitar 
e--------------------------------|
B--------------------------------|
G-8-----6----3-3-3-3-3-3-3-3-3-3-|
D-8-----6----3-3-3-3-3-3-3-3-3-3-|
A-6-----4----1-1-1-1-1-1-1-1-1-1-|
E--------------------------------|


Another guitar
e-----------------------------------------|
B-----------------------------------------|
G-----------------------------------------|
D--13-11-13---11-8-8-11---8-8-8-8-8-8-8-8-|
A-------------------------8-8-8-8-8-8-8-8-|
E-------------------------6-6-6-6-6-6-6-6-|




Bridge
e-------------------------------|
B-------------------------------|
G-----3-3-1---------------------|
D-----------3-2--1-1-4-4--444-3-|
A-1-1---------------------------|
E-------------------------------|

e-------------------------------------------|
B-------------------------------------------|
G----------6----------8-8-8-6---8-8-8-6-----|
D--8-8-6-8---8--6-8-8---------8---------8-8-|
A-------------------------------------------|
E-------------------------------------------|

e--------------------------------------------------|
B--------------------------------------------------|
G------------------------6--8/10-10\6--------------|
D-----6-8------------6-8---------------8-8-8-6-8---|
A-6-8-------6-8--6-8-----------------------------6-|
E---------9----------------------------------------|

            
            
Suggest correction
Creating personal tab
Creating personal tab
You can edit any tab online and save it as your Personal.

You can edit, replace or remove any tab part or add personal notes – all changes will be seen only by you.

Personal tabs can be accessed anytime from any device, even offline.
Learn more »
comments
print report bad tab
6 comments total. Showing first comments.
0 reply
smith92 51 Mar 24, 2006 12:57 PM

Dude, im just 13, And im determind to learn all their stuff! You just added to that determination. Thankyou!

0 reply
baa 10 Apr 15, 2006 02:56 PM

good tab! but on the start the C#5 chord is played twice
(ps why does everyone on this site say 'dude'?????!!!??)

0 reply
RATicuZZ 10 Apr 28, 2006 01:23 PM

dude is where its at

guest
You may want to rate the tab now too:
select rating
Wanna post a correction for this tab? Suggest correction