Oops, an error
Loading. Please wait.
We have an official Still Take You Home tab made by UG professional guitarists. Check out the tab »
×
5,323 views 1 this week
2 commentsread comments
1 2 3 4 5
x 4
add to favorites
×
Save as Personal and add changes to this tab that will be seen only by you. Learn more ›
×
You can save this tab as Personal to edit and correct it or add notes. All changes will be seen only by you. Learn more »
launch autoscroll
font size
0
reset
how to read this tab
guitar tuner
backing track
0:00
0:00
edit
Autoscroll
slow
fast
+/-
esc
set tempo
stop
Paul Kramer.
kramer_a_p@hotmail.com
Any problems tell mee, I wanna see how good I am at doing this whole tabbing thing, Arctic Monkeys FTW
(intro)
----------------------    -------------------------------------------|
----------------------     ------------------------------------------|
--8-6-8---6--6--------    -------------------------------------------|
------------8---------    -----------------------------------(×16----|
----------------------    ------5-4--------5-4--------5-4------------|
----------------------    --6-6----6-6--6-----6-6--6-----------------|
+++++++++++++++++++++++++++++++++++++++++++++++++++++++++++++++++++

(verse)  First with solo…
--6-6--6-6-6--6-6-6--6-6-8-8--8-8-----------------|
--6-6--6-6-6--6-6-6--6-6-8-8--8-8-11-11-11-10-----|
--7-7--7-7-7--7-7-7--7-7-8-8--8-8-11-11-11-10-----|
--8-8--8-8-8--8-8-8--8-8-8-8--8-8-11-11-11-10(×6)-|
--8-8--8-8-8--8-8-8--8-8-6-6--6-6-9--9--9--8------|
--6-6--6-6-6--6-6-6--6-6--------------------------|

Oh, spending all of your money, On trendy haircuts that you read were cool
And you're probably alright, But under these lights you look beautiful
And I'm struggling, I can't see through your fake tan
Oh ya know it for a fact That everybody's eating outta your hand

(solo)
----------------------------------------------------------|
----------------------------------------------------------|
----------------------------------------------------------|
--8-8-6----------------------------6----------------------|
--------8-8-6-8--8-8-6-8-8-6-8-6-8---8-6-8----------------|
6---------------------------------------------------------|

-----------------------------------------------------------------|
-----------------------------------------------------------------|
-----------------------------------------------------------------|
-------------------------------------6--8-6-8--8-6-8-8-8-6-------|
-8-8----6-8-----6-8-----8----------------------------------------|
-----9-9-----9-9-----9-9-----------------------------------------|
+++++++++++++++++++++++++++++++++++++++++++++++++++++++++++++++++++

(chorus)
-------------------          6-6-6-6----------|
-------------------          6-6-6-6----------|
--8-6-8---6---6----           7-7-7-7---------|
------------8------           8-8-8-8---------|(×8)
-------------------            8-8-8-8--------|
-------------------           6-6-6-6---------|
What do you know?		But I'll still take you home
Oh you know nothing!	        Yeah, I'll still take you home
+++++++++++++++++++++++++++++++++++++++++++++++++++++++++++++++++++


(verse)
--6-6--6-6-6--6-6-6--6-6-8-8--8-8-----------------|
--6-6--6-6-6--6-6-6--6-6-8-8--8-8-11-11-11-10-----|
--7-7--7-7-7--7-7-7--7-7-8-8--8-8-11-11-11-10-----|
--8-8--8-8-8--8-8-8--8-8-8-8--8-8-11-11-11-10(×4)-|
--8-8--8-8-8--8-8-8--8-8-6-6--6-6-9--9--9--8------|
--6-6--6-6-6--6-6-6--6-6--------------------------|
Fancy seeing you in here, You're all tarted up, and you don't look the same
I haven't seen you since last year,  Yeah I'm suprised you hadn't forgotten my name
But you know it,  Yeah you knew it all along
Oh you say you have forgotten,  But you're fibbin', oh don't tell me I'm wrong
+++++++++++++++++++++++++++++++++++++++++++++++++++++++++++++++++++
(chorus)
-------------------          6-6-6-6----------|
-------------------          6-6-6-6----------|
--8-6-8---6--6-----          7-7-7-7----------|
-------------8-----           8-8-8-8---------|(×8)
-------------------            8-8-8-8--------|
-------------------           6-6-6-6---------|
What do you know?		But I'll still take you home
Oh you know nothing!	        Yeah, I'll still take you home
++++++++++++++++++++++++++++++++++++++++++++++++++++++++++++++
(Bridge)
------------------------------------------------------|
------------------------------------------------------|
------------------------------------------------------|
---------------8-8-8-7---------------------------(×2)-|
------------------------8--6-x-x-6-x-9-9-9-7-7--------|
--6--x-x-6-x------------------------------------------|

--6---|
--6---|
--7---|
--8---|
--8---|
--6---|

----------------------------------------------------------------------------|
----------------------------------------------------------------------------|
-----------6--66-8-8-8--6-6--8-8-8-6---------------------------6-6-8b-------|
-----8--6-8-8------------8-----------8-8---6-7-8--8-6---6-6-8--------8------|
-----------------------------------------------------8---8------------------|
--8-------------------------------------------------------------------------|

-------------------|
-------------------|
-------------------|
---8-8-8-8--6------|
--------------8-6--|
-------------------|


Wooh wooh wooh…   wooh wooh woohh....    dada da da, ladada da da. dada
-8----------------6----------------------6---------------------------------|
-8----------------6----------------------6---------------------------------|
-8----------------6----------------------7---------------------------------|
-8----------------6----------------------8---------------------------------|
-6----------------4----------------------8---------------------------------|
-----------------------------------------6---------------------------------|
Wooh Wooh Wooh..        Ahww..
--8---------------------6---|
--8---------------------6---|
--8---------------------6---|
--8---------------------6---|
--6---------------------4---|
----------------------------|
+++++++++++++++++++++++++++++++++++++++++++++++++++++++++++++++++++

(intro)
------------------------------------------|
------------------------------------------|
------------------------------------------|
-----------------------------------(×8)---|
------5-4--------5-4--------5-4-----------|
--6-6----6-6--6-----6-6--6----------------|
+++++++++++++++++++++++++++++++++++++++++++++++++++++++++++++++++++

(chorus)
--8--8--8--8--8--8--8--8-8---6--6--6--6--6--6--6--6-6----[6-6-6-6-------]
--8--8--8--8--8--8--8--8-8---6--6--6--6--6--6--6--6-6----[6-6-6-6-------]
--8--8--8--8--8--8--8--8-8---6--6--6--6--6--6--6--6-6----[7-7-7-7-------]
--8--8--8--8--8--8--8--8-8---6--6--6--6--6--6--6--6-6----[8-8-8-8---(×8)]
--6--6--6--6--6--6--6--6-6---4--4--4--4--4--4--4--4-4----[8-8-8-8-------]
---------------------------------------------------------[6-6-6-6-------]
I said what do you know?          You know nothing        But ill still
                                                          take you home….

--8--8--8--8--8--8--8--8-8---6--6--6--6--6--6--6--6-6---|
--8--8--8--8--8--8--8--8-8---6--6--6--6--6--6--6--6-6---|
--8--8--8--8--8--8--8--8-8---6--6--6--6--6--6--6--6-6---|
--8--8--8--8--8--8--8--8-8---6--6--6--6--6--6--6--6-6---|
--6--6--6--6--6--6--6--6-6---4--4--4--4--4--4--4--4-4---|
--------------------------------------------------------|

+++++++++++++++++++++++++++++++++++++++++++++++++++++++++++++++++++
(verse)
--6-6-6-6-6-6-6-6-6-6-6-6-6-6-6-6-6-6--8-8-8-8-8-8-8-8-8---------------|
--6-6-6-6-6-6-6-6-6-6-6-6-6-6-6-6-6-6--8-8-8-8-8-8-8-8-8--11-11-11--10-|
--7-7-7-7-7-7-7-7-7-7-7-7-7-7-7-7-7-7--8-8-8-8-8-8-8-8-8--11-11-11--10-|
--8-8-8-8-8-8-8-8-8-8-8-8-8-8-8-8-8-8--8-8-8-8-8-8-8-8-8--11-11-11--10-|
--8-8-8-8-8-8-8-8-8-8-8-8-8-8-8-8-8-8--6-6-6-6-6-6-6-6-6--9--9--9---8--|
--6-6-6-6-6-6-6-6-6-6-6-6-6-6-6-6-6-6----------------------------------|
     Fancy seeing you….							        Including mine

            
            
Suggest correction
Creating personal tab
Creating personal tab
You can edit any tab online and save it as your Personal.

You can edit, replace or remove any tab part or add personal notes – all changes will be seen only by you.

Personal tabs can be accessed anytime from any device, even offline.
Learn more »
comments
print report bad tab
2 comments total.
0 reply
smith92 51 Mar 26, 2006 02:54 AM

A bit sloppy, but correct.

0 reply
smith92 51 Apr 21, 2006 10:14 AM

crud actually

guest
Wanna post a correction for this tab? Suggest correction