Oops, an error
Loading. Please wait.
We have an official Still Take You Home tab made by UG professional guitarists. Check out the tab »
×
79 views 1 this week
no commentswrite comment
1 2 3 4 5
2 more votes to show rating
add to favorites
×
Save as Personal and add changes to this tab that will be seen only by you. Learn more ›
×
You can save this tab as Personal to edit and correct it or add notes. All changes will be seen only by you. Learn more »
launch autoscroll
font size
0
reset
how to read this tab
guitar tuner
backing track
0:00
0:00
edit
Autoscroll
slow
fast
+/-
esc
set tempo
stop
Difficulty
intermediate
This is my interpretation of every live "Still Take You Home" performances by the Arctic Monkeys from around
2008.

What makes this different than the rest live performances (before 2008) is that they changed the bridge solo
with something completely different and i figured since there are no tabs for it , I'd make one.

Feel free to share this tab but give me credits if you mean using any section of this tab for another one.

I will be doing both guitars (Jamie and Alex) so enjoy and please do correct me if I'm wrong.

Guitar 1 : "Alex"
EBGDAE

Guitar 2 : "Jamie"
EBGDAE


BPM : ~200 , some live performances are way slowed down , such as the 2009 reading festival.


[Intro]
Both guitars

e|--------------------------|
B|--------------------------|
G|--------------------------|
D|--------------------x12---|
A|-----5--4--0--------------|
E|-66-----------------------|

Only Alex ( around 0:21 )

e|----------------------------------------|
B|----------------------------------------|
G|----------------------------------------|
D|-----------------x4---------------------|
A|-----5--4--0----------------------------|
E|-66-------------------------------------|

Fourth time

e|--------------------|
B|--------------------|
G|--------------------|
D|--------------------|
A|-----5--4--4444-----|
E|-66-----------------|


[Solo]

Alex

e|------------------------------------------------|
B|------------------------------------------------|
G|------------------------------------------------|
D|-8-8-88-6-------------------------6-------------|
A|----------8-8-6-8-8-6-8-8-6-8-6-8---8-6-8-6-44--|
E|------------------------------------------------|

e|------------------------------------------------|
B|------------------------------------------------|
G|------------------------------------------------|
D|--------------------6--8-6-8--8-6-8--8-6-88-6---|
A|-66-8-44-66-8-66-8------------------------------|
E|------------------------------------------------|

On top of the solo Jamie plays this , which is also the verse for both guitars.
(d = downpick , u=upstroke)

Jamie

    d     d  u  d  u   d  d u d  d     d  u  d         d    d u d u     

e|---------------------------------------------------------------------------|
B|---------------------------------------------------------------------------|
G|-------------------------------8-----8--8--8---/11---11---10101010---------|
D|--8-----8--8--8--8---x--8-8-8--8-----8--8--8---/11---11---10101010---------|
A|--8-----8--8--8--8---x--8-8-8--6-----6--6--6---/9----9----8-8-8-8----------|
E|--6-----6--6--6--6---x--6-6-6----------------------------------------------|
   A#5                          D#5              F#5        F5

[Verse]

Jamie and Alex

    d     d  u  d  u   d  d u d  d     d  u  d         d    d u d u     

e|---------------------------------------------------------------------------|
B|---------------------------------------------------------------------------|
G|-------------------------------8-----8--8--8---/11---11---10101010---------|
D|--8-----8--8--8--8---x--8-8-8--8-----8--8--8---/11---11---10101010---------|
A|--8-----8--8--8--8---x--8-8-8--6-----6--6--6---/9----9----8-8-8-8----------|
E|--6-----6--6--6--6---x--6-6-6----------------------------------------------|
   A#5                          D#5              F#5        F5




[Pre-Chorus]

Alex

e|-----------------------------------------|
B|-----------------------------------------|
G|--8---6---8------(8)-6---3---6-------(6)-|  (8) , (6) = Let ring , let the note play , don't mute it.
D|-----------------------------------------|
A|-----------------------------------------|
E|-----------------------------------------|

Jamie
    d                  d

e|-----------------------------------------|
B|-----------------------------------------|
G|--8--------------(8)-6---------------(6)-|
D|--8--------------(8)-6---------------(6)-|
A|--6--------------(6)-4---------------(4)-|
E|-----------------------------------------|
   D#5                C#5

[Chorus]

Both Guitars


   dudududududududu

e|----------------------|
B|----------------------|
G|----------------------|
D|-4444444444444444-----|
A|-4444444444444444-----|
E|-6666666666666666-----|

Repeat pre-chorus on both guitars.

Alex

e|-----------------------------------------|
B|-----------------------------------------|
G|--8---6---8------(8)-6---3---6-------(6)-|  
D|-----------------------------------------|
A|-----------------------------------------|
E|-----------------------------------------|

Jamie
    d                  d

e|-----------------------------------------|
B|-----------------------------------------|
G|--8--------------(8)-6---------------(6)-|
D|--8--------------(8)-6---------------(6)-|
A|--6--------------(6)-4---------------(4)-|
E|-----------------------------------------|
   D#5                C#5

Repeat Chorus

Both Guitars

   dududududududududududududududud

e|----------------------------------|
B|----------------------------------|
G|----------------------------------|
D|-4444444444444444444444444444444--|
A|-4444444444444444444444444444444--|
E|-6666666666666666666666666666666--|

Post-Chorus

e|------------------------------------------------------------------------|
B|------------------------------------------------------------------------|
G|------------------------------------------------------------------------|
D|------------------------------------------------------------------------|
A|------------------------------------------------------------------------|
E|------------------------------------------------------------------------|

Well fancy seeing you in here , you're all tarted up and you look the same.

[Verse]

Jamie and Alex

    d     d  u  d  u   d  d u d  d     d  u  d         d    d u d u     

e|---------------------------------------------------------------------------|
B|---------------------------------------------------------------------------|
G|-------------------------------8-----8--8--8---/11---11---10101010---------|
D|--8-----8--8--8--8---x--8-8-8--8-----8--8--8---/11---11---10101010---------|
A|--8-----8--8--8--8---x--8-8-8--6-----6--6--6---/9----9----8-8-8-8----------|
E|--6-----6--6--6--6---x--6-6-6----------------------------------------------|
   A#5                          D#5              F#5        F5

[Pre Chorus]


Alex

e|-----------------------------------------|
B|-----------------------------------------|
G|--8---6---8------(8)-6---3---6-------(6)-|  
D|-----------------------------------------|
A|-----------------------------------------|
E|-----------------------------------------|

Jamie
    d                  d

e|-----------------------------------------|
B|-----------------------------------------|
G|--8--------------(8)-6---------------(6)-|
D|--8--------------(8)-6---------------(6)-|             Repeate this pattern x2 (Prechorus-Chorus)
A|--6--------------(6)-4---------------(4)-|
E|-----------------------------------------|
   D#5                C#5

[Chorus]

Both Guitars

   dududududududududududududududud

e|----------------------------------|
B|----------------------------------|
G|----------------------------------|
D|-4444444444444444444444444444444--|
A|-4444444444444444444444444444444--|
E|-6666666666666666666666666666666--|



[BRIDGE]

e|------------------------------------------------------------------------|
B|------------------------------------------------------------------------|
G|------------------------------------------------------------------------|
D|------------------------------------------------------------------------|
A|------------------------------------------------------------------------|
E|------------------------------------------------------------------------|

DRUM FILL-----------------------------------------------------------------|

Jamie

~ = vibrato ( slightly keep bending the string up and down so it creates wobbly effect)

e|------------------------------------------------------------------------|
B|------------------------------------------------------------------------|
G|---/10~~~~~~------------------------------------------------------------|
D|---------------------x5-------------------------------------------------|
A|------------------------------------------------------------------------|
E|------------------------------------------------------------------------|

Alex

e|------------------------------------------------------------------------|
B|------------------------------------------------------------------------|
G|----------6-7~~~~-------------------------------------------------------|
D|-888-9-8-----------888-9--5--4~~~~~-------X5----------------------------|
A|------------------------------------------------------------------------|
E|------------------------------------------------------------------------|


e|------------------------------------------------------------------------|
B|------------------------------------------------------------------------|
G|----------6-7-67--------------------------------------------------------|
D|-888-9-8-----------888-9--5--4~~~~~-------FIFTH TIME--------------------|
A|------------------------------------------------------------------------|
E|------------------------------------------------------------------------|

[Ending of bridge (sixth time of bridge riff)]

Jamie

e|------------------------------------------------------------------------|
B|------------------------------------------------------------------------|
G|--/10~~~~~-------101010-11-11-101010-11--11-----------------------------|
D|------------------------------------------------------------------------|
A|------------------------------------------------------------------------|
E|------------------------------------------------------------------------|

Alex

e|------------------------------------------------------------------------|
B|------------------------------------------------------------------------|
G|----------6-7~~~~-------------------------------------------------------|
D|-888-9-8-----------888-9--9----888-9--9---------------------------------|
A|------------------------------------------------------------------------|
E|------------------------------------------------------------------------|


e|------------------------------------------------------------------------|
B|------------------------------------------------------------------------|
G|101010-11---------------------------------------------------------------|
D|----------121-----------------------------------------------------------|
A|------------------------------------------------------------------------|
E|------------------------------------------------------------------------|


e|------------------------------------------------------------------------|
B|------------------------------------------------------------------------|
G|------------------------------------------------------------------------|
D|-888-9--5-5--------Repeat until end-------------------------------------|
A|------------------------------------------------------------------------|
E|------------------------------------------------------------------------|

NOTE : JAMIE ISN'T OUT OF RYTHM , 2 DIGIT NUMBERS DON'T FIT WELL, THE RYTHM AND TIMING IS SAME IN BOTH
ALEX AND JAMIE.

[Post-Bridge]

e|------------------------------------------------------------------------|
B|------------------------------------------------------------------------|
G|------------------------------------------------------------------------|
D|------------------------------------------------------------------------|
A|------------------------------------------------------------------------|
E|------------------------------------------------------------------------|

(They wait Matt , the drummer to give the signal )

[Intro]
Both Guitars

e|--------------------------|
B|--------------------------|
G|--------------------------|
D|--------------------------|
A|-----5--4--0--------------|
E|-66-----------------------|

[Pre-chorus , a little bit different this time]

Both guitars

all downpicks ( d d d d d ... )

e|------------------------------------------------------------------------|
B|------------------------------------------------------------------------|
G|--4--4--4--4--4--4--4--4--6--6--6--6--6--6--6--6------------------------|
D|--4--4--4--4--4--4--4--4--6--6--6--6--6--6--6--6------------------------|
A|--6--6--6--6--6--6--6--6--4--4--4--4--4--4--4--4------------------------|
E|------------------------------------------------------------------------|

[Chorus]


e|----------------------------------|
B|----------------------------------|
G|----------------------------------|
D|-4444444444444444444444444444444--|
A|-4444444444444444444444444444444--|
E|-6666666666666666666666666666666--|

Repeat this pattern twice

[Outro verse , a little bit different]

e|-----------------------------------------------------|
B|-----------------------------------------------------|
G|-----------------------------------------------------|
D|-----------------44444444 1111111010101010-----------|
A|-444444444444444466666666-9-9-9-8-8-8-8-8------------|
E|-6666666666666666------------------------------------|

End on

e|----|
B|----|
G|----|
D|----|
A|-4--|
E|-6--|








************************************

| x   Dead note
| g   Grace note
| (n) Ghost note
| h   Hammer-on
| p   Pull-off
| r   Release
| >   Accented note
| t   Tapping
| b   Bend
| br  Bend release
| pb  Pre-bend
| pbr Pre-bend release
| /   Slide up
| \   Slide down
| ~   Vibrato
| s   Slap
| P   Pop
| PM  Palm mute
| TR  Trill
| N   Tremolo

************************************
Suggest correction
Creating personal tab
Creating personal tab
You can edit any tab online and save it as your Personal.

You can edit, replace or remove any tab part or add personal notes – all changes will be seen only by you.

Personal tabs can be accessed anytime from any device, even offline.
Learn more »
Give kudos to tab author, rate the tab!
1 2 3 4 5
comments
print report bad tab
guest
Wanna post a correction for this tab? Suggest correction