Oops, an error
Loading. Please wait.
We have an official Teddy Picker tab made by UG professional guitarists. Check out the tab »
×
68,221 views 45 this week
3 commentsread comments
1 2 3 4 5
x 10
add to favorites
×
Save as Personal and add changes to this tab that will be seen only by you. Learn more ›
×
You can save this tab as Personal to edit and correct it or add notes. All changes will be seen only by you. Learn more »
launch autoscroll
font size
0
reset
guitar tuner
backing track
0:00
0:00
edit
Autoscroll
slow
fast
+/-
esc
set tempo
stop
[Part 1]
G|----------------|
D|----------------|
A|------6-5-------|
E|--5-5-----4-----|

[Part 2]
G|------------------------|
D|------------------------|
A|----------------------3-|
E|--0-0--4-0--0-0-0-4-0---|

[Part 3]
G|-------------------------------------------|
D|-------------------------------------------|
A|------------------------6-5--------6-5-----|
E|-11111111-00000000--5-5-----4--5-5-----4---|

G|---------------------------------------|
D|---------------------------------------|
A|--------------------6666666666666666---|
E|-11111111-00000000---------------------|

[Part 4]
G|---------------|
D|---------------|
A|---------6-5---|
E|--5--5-5-------|

[Part 5]
G|-------------------------------------------|
D|-------------------------------------------|
A|------------------------6-5--------6-5-----|
E|-11111111-00000000--5-5-----4--5-5-----4---|

G|----------------------|
D|----------------------|
A|----------6-5-3-2-----|
E|-11111111---------0---|

[Part 6]
G|--------------------------|
D|--------------------------|
A|------------------------3-|
E|--0--0-0--4-0--0--0-0-4---|

[Part 7]
G|-------------------------------------|
D|-------------------------------------|
A|---------------------------6-5-------|
E|-11111111-00000000--5--5-5-----4-----|

G|---------------------------------------|
D|---------------------------------------|
A|---------------------------------------|
E|-11111111-00000000--5555555555555555---|

[Part 8]
G|------------------------|
D|------------------------|
A|------------------------|
E|--5---0---5---55555555--|

G|------------------------|
D|------------------------|
A|--------------66666666--|
E|--5---0---5-------------|

            
            
Suggest correction
Creating personal tab
Creating personal tab
You can edit any tab online and save it as your Personal.

You can edit, replace or remove any tab part or add personal notes – all changes will be seen only by you.

Personal tabs can be accessed anytime from any device, even offline.
Learn more »
comments
print report bad tab
3 comments total.
+2 reply
clark j 114 May 12, 2007 04:24 PM

on part 3,5, and 7 the "4" is actually a "1" and on part 8 the first 5's are actually "1"'s

+1 reply
TomAtack 10 Jul 07, 2007 06:37 AM

A near perfect version of this song is available. This version has wrong notes in it. Specifically the 4 should be a 1 on on the E-string. For example, try playing part 3 beginning with a bunch of 1's rather than 4's and you will see it suddenly sounds correct. This mistake is all the way through the song. And as there is already a near perfect version, this version is kinda useless - hence the one star. Sorry - especially as your version is way more easy to read.

0 reply
OWENBA1991 31 Aug 03, 2007 11:28 AM

there is a slide from 4to 5 during the verses until the rythym pattern changes its on my one.

guest
You may want to rate the tab now too:
select rating
Wanna post a correction for this tab? Suggest correction