Oops, an error
Loading. Please wait.
We have an official Teddy Picker tab made by UG professional guitarists. Check out the tab »
×
222,592 views 276 this week
4 commentsread comments
1 2 3 4 5
x 23
add to favorites
×
Save as Personal and add changes to this tab that will be seen only by you. Learn more ›
×
You can save this tab as Personal to edit and correct it or add notes. All changes will be seen only by you. Learn more »
launch autoscroll
font size
0
reset
how to read this tab
guitar tuner
backing track
0:00
0:00
edit
Autoscroll
slow
fast
+/-
esc
set tempo
stop
Author
Teddy Picker
Arctic monkeys
Tabbed by Ryan.c

good song and aint too hard to play. i think i got i right but if i didnt
you can send your feedback to chhang7@hotmail.com.



[intro/verse]

E|----------------------------------------|
B|----------------------------------------|
G|----------------------------------------|
D|----------------------------------------|
A|-----6-5-------6-5-------6-5-------6-5--|
E|-5-5-----4-5-5-----4-5-5-----4-5-5------|

E|----------------------------------------|
B|----------------------------------------|
G|----------------------------------------|
D|----------------------------------------|
A|--------------------3-----6-5-------6-5-|
E|-5-0-0-4-0--0-0-4-0---5-5-----4-5-5-----|

E|----------------------------------------|
B|----------------------------------------|
G|----------------------------------------|
D|----------------------------------------|
A|-----6-5-------6-5-------6-5-------6-5--|
E|-5-5-----4-5-5-----4-5-5-----4-5-5------|

E|----|
B|----|
G|-14-| this chord gets played from time to time 
D|-14-|
A|-12-|
E|----|


[chorus]

Rhythm
E|--------------------|
B|--------------------|
G|10--9--14-14-14-14--| 
D|10--9--14-14-14-14--|
A|-8--7--12-12-12-12--|
E|--------------------|

E|--------------------|
B|--------------------|
G|10--9--8-8-8-8-8----| 
D|10--9--8-8-8-8-8----|
A|-8--7--6-6-6-6-6----|
E|--------------------|

Lead

E|--------------------|
B|--------------------|
G|----14-17-19-16--14-| 
D|-15--------------14-|
A|-----------------12-|
E|--------------------|


[2nd chorus]

Lead

E|-----------------|
B|-----------------|
G|-14-17-19-16--14-| 
D|-15-----------14-|
A|--------------12-|
E|-----------------|

E|---------------------------|
B|---------------------------|
G|----14-17-19-19-17-16-14---| 
D|-15---------------------14-|
A|---------------------------|
E|---------------------------|


[solo]

this is played with some sort of tremelo/phaser effect

E|-----------------------------15---------|(x2)
B|-5-5-5/18-17-17-17-17-17-17-------------|
G|----------------------------------------| 
D|----------------------------------------|
A|----------------------------------------|
E|----------------------------------------|

E|-----17-------------------15------------|
B|-5-5----18-17-17-17-17-17---------------|
G|----------------------------------------| 
D|----------------------------------------|
A|----------------------------------------|
E|----------------------------------------|

E|-----17---------------------------------|
B|-5-5----18-17-15-15-13-13-12-10-10-10-8-|
G|----------------------------------------| 
D|----------------------------------------|
A|----------------------------------------|
E|----------------------------------------|

you dont have to play that A chord as the rhythm
guitarist plays it but it sounds good. and put a 
vibrato on that A(17)note

E|--5-5/-17-17-17-17-17------|(x3)
B|--5-5----------------------|     
G|---------------------------|    
D|---------------------------|
A|---------------------------|
E|---------------------------|

E|--17-15-13-12----------12-17--|
B|--------------13-12-----------|
G|--------------------14--------| 
D|------------------------------|
A|------------------------------|
E|------------------------------|

and you know the rest

************************************

| /  Slide up

************************************

            
            
Suggest correction
Creating personal tab
Creating personal tab
You can edit any tab online and save it as your Personal.

You can edit, replace or remove any tab part or add personal notes – all changes will be seen only by you.

Personal tabs can be accessed anytime from any device, even offline.
Learn more »
comments
print report bad tab
4 comments total. Showing first comments.
0 reply
Steve The Plank 214 Apr 20, 2007 02:01 AM

Accurate tab, besides the solo. I think the solo of the first version of this tab is more spot on. But good besides that!

0 reply
PLUGINCHILD 70 Apr 30, 2007 06:49 AM

alright

0 reply
Stereo92 849 Jun 06, 2007 12:04 PM

The Chord Played at uneven periods in the verse is:

e-5--|
B-5--|
G-5--|
D-7--|
A----|
E----|

guest
You may want to rate the tab now too:
select rating
Wanna post a correction for this tab? Suggest correction