Oops, an error
Loading. Please wait.

Temptation Greets You Like Your Naughty Friend Tab

version 1
version 1

Whole song

Interactive

40,100 views 54 this week
9 commentsread comments
1 2 3 4 5
x 24
add to favorites
launch autoscroll
font size
0
reset
how to read this tab
guitar tuner
backing track
0:00
0:00
×
Best way to learn
"Temptation Greets You Like Your Naughty Friend"
Autoscroll
slow
fast
+/-
esc
set tempo
stop
Author
Difficulty
ARCTIC MONKEYS - TEMPTATION GREETS YOU LIKE YOUR NAUGHTY FRIEND
track taken from the single, "Brianstorm".
featuring Dizzee Rascal

this is my first tab so I would appreciate advice rather than criticism please.
enjoy...

e|------------------------| (x13)
B|------------------------|
G|------------------------|
D|----7-10-----7-10-------|
A|------------------------|
E|--5-----0-0-5----0-0-5--|

(lyrics come in at 00:21 this is when you pause)
(and then continue to play at 00:35)

REPEAT 1ST PART UNTILL 1:02, AT 1:02 PLAY THIS RIFF
[Listen to the song to get the strumming and timing right]

e|------------------------| (x2)
B|------------------------|
G|-----5-559-5-7-9-7-5-4--|
D|-7-775-559-5-7-9-7-5-4--|
A|-7-773-337-3-5-7-5-3-2--|
E|-5-55-------------------|

then go straight back into the first part

e|------------------------|  (on the 4th time, pause for a second and then             
B|------------------------|   continue another 14 times)
G|------------------------|
D|----7-10-----7-10-------|
A|------------------------|
E|--5-----0-0-5----0-0-5--|

also on the 12th time, a small riff is played in the background,that goes like this

e|-----------------------| (x2)
B|--1-3-\5-111-3\5-3/1~--|
G|-2---------------------|
D|-----------------------|
A|-----------------------|
E|-----------------------|

then back into the chorus

e|------------------------| (x4)
B|------------------------| (the last chord on the 4th time is this):
G|-----5-559-5-7-9-7-5-4--|  G-7-|
D|-7-775-559-5-7-9-7-5-4--|  D-7-|
A|-7-773-337-3-5-7-5-3-2--|  A-5-|
E|-5-55-------------------|  E---|

then Dizzee Rascal will sing, play this:

e|-----------| (x15)  
B|-----------|
G|-----------|
D|-----------|
A|--0-3-7-7--|
E|-5---------|

on the 15th time at the end, play these notes after

e|E-5-----------------------------------------|
B|A--2-3-5-------5-55555-3-33333-2-2h5-5-3-2--|
G|D-------7-77777---------------------2-------|
D|G-------------------------------------------|
A|B-------------------------------------------|
E|e-------------------------------------------|

then play the main riff:

e|------------------------| (x14)
B|------------------------|
G|-----5-559-5-7-9-7-5-4--|
D|-7-775-559-5-7-9-7-5-4--|
A|-7-773-337-3-5-7-5-3-2--|
E|-5-55-------------------|

end...

************************************

| /  Slide up
| \  Slide down
| ~  Vibrato
| h  Hammer-on

************************************
Suggest correction
comments
print report bad tab
9 comments total. Showing first comments.
0 reply
mad fer it 10 Jun 12, 2007 08:18 AM

tabbed upside down

0 reply
gibson! 176 Nov 07, 2007 07:26 AM

kewl tab :) well dun! but yea its upside down lol

0 reply
phil conry 229 Dec 20, 2007 12:46 PM

read above.

guest
You may want to rate the tab now too:
select rating
Wanna post a correction for this tab? Suggest correction