Oops, an error
Loading. Please wait.

Temptation Greets You Like Your Naughty Friend tab

version 1
version 1

Whole song

Interactive

8,253 views 39 this week
6 commentsread comments
1 2 3 4 5
x 10
add to favorites
×
Save as Personal and add changes to this tab that will be seen only by you. Learn more ›
×
You can save this tab as Personal to edit and correct it or add notes. All changes will be seen only by you. Learn more »
launch autoscroll
font size
0
reset
how to read this tab
guitar tuner
backing track
0:00
0:00
edit
Autoscroll
slow
fast
+/-
esc
set tempo
stop
Temptation Greets You Like Your Naughty Friend Tab - Arctic Monkeys

Tabbed by soupdragon
Great new song from the monkeys!
I'm not sure this is 100% right, but I'm pretty pleased with it myself.
Please rate!

Tuning: standard

UPDATE- changed intro/verse- thnx to linusinkarmacom for the new one!

INTRO/VERSE
It should be: 

E|----------------------------------------------------------------------|
B|----------------------------------------------------------------------|
G|----------------------------------------------------------------------|
D|----7-10--------7-10--------7-10--------7-10--------------------------|
A|--0-----------0-----------0----------0--------------------------------|
E|---------0-0---------0-0---------0-0---------0-0----------------------|

play this riff as many times as you need to cover the intro/verse. I may
not have written the repeated part of this riff enough times, but I can't 
be bothered to count. I think it's written enough times. 

CHORUS

E|----------------------------------------------------------------------|
B|----------------------------------------------------------------------|
G|----------------------------------------------------------------------|
D|-------------------9--9-9-9-------------------------------------------|
A|--7--7-7-10--10-10-7--7-7-7-12-10-9-7---------------------------------|
E|--5--5-5-8---8--8-----------10-8--7-5---------------------------------| X2

During the rapping bit, play the verse tab, until 2:45, when you play this once:

Pre-chorus 

E|----------------------------------------------------------------------|
B|----------------------------------------------------------------------|
G|----------------------------------------------------------------------|
D|------------9--999999-------------------------------------------------|
A|--7-9-10-12-7--777777-12--121212121212-10--101010101010-9-------------|
E|--5-7-8--10-----------10--101010101010-8---8-8-8-8-8-8--7-------------|
 then play chorus.

That's about it. Comments welcome (as long as they're good!). As are suggestions.
 Rate it!
-Soupdragon

            
            
Suggest correction
Creating personal tab
Creating personal tab
You can edit any tab online and save it as your Personal.

You can edit, replace or remove any tab part or add personal notes – all changes will be seen only by you.

Personal tabs can be accessed anytime from any device, even offline.
Learn more »
comments
print report bad tab
6 comments total. Showing first comments.
+3 reply
linusinkarmacom 10 Apr 18, 2007 03:01 PM

The intro/verse is slightly wrong.
It should be:

E|----------------------------------------------------------------------|
B|----------------------------------------------------------------------|
G|----------------------------------------------------------------------|
D|----7-10--------7-10--------7-10--------7-10--------------------------|
A|--0-----------0-----------0----------0--------------------------------|
E|---------0-0---------0-0---------0-0---------0-0----------------------|

+3 reply
soupdragon 303 Apr 22, 2007 08:17 AM

Thanks man that sounds way better. Just updated my tab with that riff. Thanks again! - soupdragon

+1 reply
Rerereborn 10 May 24, 2007 03:40 AM

E|----------------------------------------------------------------------|
B|----------------------------------------------------------------------|
G|----------------------------------------------------------------------|
D|-------------------9--9-9-9-------------------------------------------|
A|--7--7-7-10--10-10-7--7-7-7-14-12-10-9--------------------------------|
E|--5--5-5-8---8--8-----------12-10-8--7--------------------------------|

that´s right^^

guest
You may want to rate the tab now too:
select rating
Wanna post a correction for this tab? Suggest correction