Oops, an error
Loading. Please wait.

The Fire And The Thud Bass Tab

3,118 views 3 this week
1 commentread comment
1 2 3 4 5
excellent!
x 3
add to favorites
launch autoscroll
font size
0
reset
guitar tuner
Autoscroll
slow
fast
+/-
esc
set tempo
stop
Help us to improve Ultimate-Guitar.com Take our survey!
×
Author
Difficulty
intermediate
G|-----------------------------------------------------|
D|----------------------------------------------10--9--|
A|7h9-9--9~-9--7h9-9--9~-9--7h9-9--9~-9--7h9-9---------|x4
E|-----------------------------------------------------|

if it's true...
G|----------------------------------------------------------------|
D|-------------7-7--7--7--7-12-12--12--12--12-12-12--12-11--------|
A|9-9--9--9--9---------------------------------------------11-9-7-|
E|----------------------------------------------------------------|

G|---------------------------------------------------|
D|--------------------------------------------10--8--|
A|9-9--9--9--9-9-9--9--9--9-9-9--9--9--9-9-9---------|
E|---------------------------------------------------|

Am I snapping...
G|-----------------------------------------------------|
D|----------------------------------------------10--9--|
A|7h9-9--9~-9--7h9-9--9~-9--7h9-9--9~-9--7h9-9---------|x4
E|-----------------------------------------------------|

The day after...
G|------------------------------------------------------------------|
D|---------------7-7--7--7--7-12-12--12--12--12-12-12--12-10--------|
A|7-9-9--9--9--9---------------------------------------------11-9-7-|
E|------------------------------------------------------------------|

G|-----------------------------------|
D|----------7-7--/12--12-12-11-------|
A|9-9--9--9--------------------12----|x2
E|--------------------------------12-|

Hiding in my...
G|-----------------------------|
D|9-9--/12--11--9--------------|
A|----------------9-9--9--7--9-|x4
E|-----------------------------|

I did request...
G|------------------------------------------------|
D|9---------------9-------------------------------|
A|--------9---------------9-------5~------5~------|
E|------------------------------------------------|

G|-------------------------------------------------------|
D|---------------------------------------------10-10-9-9-|
A|7h9-9--9~-9--7h9-9--9~-9--7h9-9--9~-9--7h9-9-----------|
E|-------------------------------------------------------|

G|-----------------------------------|
D|--------/12-12-10-10---------------|
A|9-9-9-9---------------9--9-9-9-9-9-|x18
E|-----------------------------------|

I'd like to poke them...
G|--------------------------7-7--7--7--7--7--7---7--7--6------------|
D|-------------7-7--7--7--7-------------------------------9--7------|
A|9-9--9--9--9--------------------------------------------------9~--|
E|------------------------------------------------------------------|

Rate 5 stars if you giggled at the fact I only quoted "I'd like to poke them" ;)
Suggest correction
Give kudos to tab author, rate the tab!
1 2 3 4 5
comments
print report bad tab
1 comment total.
+1 reply
Kaasknaap 10 wrote on August 25 2009, 09:13 am

"and the 2nd time someone was so fussy they voted it bad because it was called 'fire and
thud' rather than 'the fire and thud' "
Dude. I've bought the album friday and it says "Fire and the Thud" and not with The.
So you were right and that other guy was just a dumb a-hole who should do research before saying anything.

guest
You may want to rate the tab now too:
select rating
Please do not post tabs as comments. Select "correction" instead!