Oops, an error
Loading. Please wait.

The Fire And The Thud Tab

version 1
version 1

Solo

Whole song

2,226 views 1 this week
3 commentsread comments
1 2 3 4 5
accurate
x 3
add to favorites
launch autoscroll
font size
0
reset
how to read this tab
guitar tuner
Autoscroll
slow
fast
+/-
esc
set tempo
stop
Help us to improve Ultimate-Guitar.com Take our survey!
×
intro and chords are already up so heres the solo, sounds kl but its relatively simple

e|-----------------------------------------------|
B|-12b^r-p10----10b^--------10br-----12b-----10b-|
G|-----------11---------/11-------11------11-----|
D|-----------------------------------------------|
A|-----------------------------------------------|
E|-----------------------------------------------|

e|-----------------------------------------------|
B|-12b^r-p10----10b^--------10br-----12b-----10b-|
G|-----------11---------/11-------11------11-----|
D|-----------------------------------------------|
A|-----------------------------------------------|
E|-----------------------------------------------|

bends are all quite slow except the 10br which is very quick
Suggest correction
Give kudos to tab author, rate the tab!
1 2 3 4 5
comments
print report bad tab
3 comments total.
0 reply
Grohlism 67 wrote on February 1 2010, 11:52 am

Is this a tab for The Fire And The Thud?

0 reply
Grohlism 67 wrote on February 1 2010, 11:54 am

Just realised this is the solo, oops...4 stars.

0 reply
CAPTAINBEEFHEAR 167 wrote on February 7 2010, 06:27 pm

ive just realised theres another bit once the singin starts again, its the same notes as the harmony singing you can hear in the intro. the melodys like this

B|----14-10-12-10-14-12-10----
G|-11 ---------------------11-

easiest way to play it might be like this

e|-----9-----------9----------
B|-------10-12-10----12-10----
G|-11----------------------11-

cba to do it all properly but its basically all just the original tab n that

guest
You may want to rate the tab now too:
select rating
Please do not post tabs as comments. Select "correction" instead!