Oops, an error
Loading. Please wait.

The Fire And The Thud Tab

version 1
version 1

Whole song

17,574 views 61 this week
2 commentsread comments
1 2 3 4 5
accurate
x 8
add to favorites
launch autoscroll
font size
0
reset
how to read this tab
guitar tuner
Tab Pro tools
  • play this tab
  • loop segment
  • change instrument
  • show fretboard
  • metronome
×
Best way to learn
"The Fire And The Thud"
Autoscroll
slow
fast
+/-
esc
set tempo
stop
Contributor
Difficulty
novice
-------------------------------------------------------------------------------
                                      The Fire And The Thud - Arctic Monkeys
-------------------------------------------------------------------------------
Tabbed by: gastelum
Email: enrike_g22@hotmail.com

Tuning: Standar



Intro

Alex guitar:
e|----9-|         |----9---------|
B|6/7---|         |6/7---4-5-6/7-|
G|------|x7 then: |--------------| Then repeat 1st riff x2 then the 2nd riff once
D|------|         |--------------|
A|------|         |--------------|
E|------|         |--------------|

Jamie guitar:
e|----------------------------------------------|                 
B|---------------------------6/7--------4-5-6/7-|                          
G|----------------------------------------------| (Jamie plays this notes exactly
D|----------------------------------------------|  when Alex plays them)
A|----------------------------------------------|  
E|----------------------------------------------|      

Then Jamie does a bend:

e|---|
B|9^-|
G|---|
D|---|
A|---|
E|---|

Verse

Alex guitar:   
e|-2-x-2-2-2-2-2--2-2-2-|
B|-2-x-2-2-2-2-2--2-5-4-|
G|-2-x-2-2-2-2-2--2-2-2-|(repeat through verse)
D|-4-x-4-4-4-4-4--4-4-4-|
A|-4-x-4-4-4-4-4--4-4-4-|
E|-2-x-2-2-2-2-2--2-2-2-|                 

Jamie's guitar:
e|----9--------|  |-----------------|
B|6/7-------9^-|  |-----------------|
G|-------------|  |-----------------|
D|-------------|  |-----------------|
A|-------------|  |7/9---11/12\9\4--|(Jamie plays this again but in a low volume at next verse)
E|-------------|  |-----------------|

Chorus:

Alex guitar:
F#m A Cbm F#m F#m Cbm F#m Cbm

Jamie's Guitar:
e|-----------------------------------|
B|-----------------------------------|
G|-----------------------------------|
D|-----------------------------------|
A|9----12------9------------------4^-|
E|-----------------------------------|

Verse 2

Alex guitar: Same as verse 1

Jamie's guitar:
e|-------------------------------------------|
B|-------------------------------------------|
G|--------------------11-14-11-13-11-13^-11\-|
D|-------------------------------------------|
A|-------------------------------------------|
E|------2---------2~~------------------------|

Chorus 2

Alex guitar: Same as chorus 1

Jamie's guitar:
e|--------------------------------|
B|4-6------9------8-----7-----7/6-|
G|--------------------------------|
D|--------------------------------|
A|--------------------------------|
E|--------------------------------|

"And now you are hiding in my soup":

Alex guitar:
Cbm F#m

Jamie's guitar:
e|---------------|
B|-9^--6-7/[14]--|
G|---------------|Repeat
D|---------------|
A|---------------|
E|---------------|

Solo

Alex guitar:
F#m

Jamie's guitar:
e|-------------------------|
B|[12]^-----------12--10---|
G|------11-14---11--11--11-|Repeat but [12] bend is 13 now
D|-------------------------|
A|-------------------------|
E|-------------------------|

Jamie plays a riff some times, here it is:
e|-------------------|
B|--12--10--131210---|
G|11--11--11------11-|
D|-------------------|
A|-------------------|
E|-------------------|

Outro
Alex guitar:
F#m until "Id like to poke" then: F#m A Cbm F#m

Jamie plays this riff like once and then do some times a bend:
e|-------------------|  |-----|
B|--12--10--131210---|  |-----|
G|11--11--11------11-|  |-11^-|
D|-------------------|  |-----|
A|-------------------|  |-----|
E|-------------------|  |-----|

************************************

| /   slide up
| \   slide down
| h   hammer-on
| p   pull-off
| ~   vibrato
| +   harmonic
| x   Mute note
| ^   Bend
| pb  Pre-bend
| br  Bend release
| pbr Pre-bend release
| brb Bend release bend

************************************
comments
print report bad tab
2 comments total.
+1 reply
arcticNoris wrote on July 8 2011, 09:19 pm

the solo is performed by alex

0 reply
Meyrio wrote on November 24 2013, 04:07 pm

Cbm is actually a D chord.

I want to post or [tab]
guest
You may want to rate the tab now too:
select rating
Please do not post tabs as comments. Select "correction" instead!