Oops, an error
Loading. Please wait.

The Hellcat Spangled Shalalala Bass Tab

version 1
version 1

Whole song

Interactive

5,663 views 1 this week
2 commentsread comments
1 2 3 4 5
worth learning
x 3
add to favorites
launch autoscroll
font size
0
reset
guitar tuner
Autoscroll
slow
fast
+/-
esc
set tempo
stop
Help us to improve Ultimate-Guitar.com Take our survey!
×
Contributor
Difficulty
intermediate
Tabbed by Leonard.
Intro
E|--4-------------3--4----|
A|-2-24----------5--2--2-4| X4
D|-----1-4-7/9\46---------|
G|------------------------|

Verse A                  Verse B
E|-4-4-42-4-4-----4-2--| E|-4-4-42-4-4-----4-2|
A|--2-2--2---2-4-2---2-| A|--2-2--2---2-4/6---|
D|---------------------| D|-------------------|
G|---------------------| G|-------------------|
                         
Verse C                  Verse pattern
E|-4-4-42-4-4------|     A,B,A,B,A,B,A,C
A|--2-2--2---2-4-2-|
D|-----------------|
G|-----------------| 

Chorus (11= two ones, not eleven)
E|-----------------------------------------------------|
A|------2--2----------------------------------2--2-----|
D|-1-2-2-22-2-22/4-1-11-2-2-22-2-22/4-1-11-2-2-22-22-5~|
G|-----------------------------------------------------|

Verse
A,B,A,B,A,B,A,C

Chorus x1

Ending
E|-/7-2~-024-424--------3-33-4-424-------3-33-4-424-|
A|----------2-----------------2----------------2----|
D|---------------2-2-222----------2-2-222-----------|
G|--------------------------------------------------|

Cont (24= two and four not twenty-four)
E|---------4-2--------4-2-2----------24-42-4-4-444-24---4-|
A|-4-44-444-2-4-44-242-2---/75\3/7-77--2-------------24---|
D|-----------------------------------------------------1--|
G|--------------------------------------------------------|

Cont
E|-----------4-44------------------------------1--7---|
A|-24-4-4-444----2/7657-----------------2-2-222-76-56-|
D|---------------------2-2-222-5-55-5555--------------|
G|----------------------------------------------------|

Cont
E|-2-2-222\1--7---------2-22-24----------420----7----------|
A|----------76-56--------------24-2-2-222---2/76-56-2-2-22-|
D|---------------2-2-222-----------------------------------|
G|---------------------------------------------------------|

Cont                            
E|-420--7---------420~|             
A|----76-56-2-2-22----|          
D|--------------------|
G|--------------------|       THE END.
comments
We did not receive enough feedback on this tab! Please rate:
print report bad tab
1 2 3 4 5
2 comments total.
+1 reply
samsamson 12 wrote on June 24 2011, 01:04 pm

Didn't you write it in the wrong way (EADG instead of GDAE) ?

0 reply
rrr3da 350 wrote on July 5 2011, 10:40 am

You used the wrong template, you should have used EADG!
They're quite accurate, anyway, check the ver2 of this tabs.

I want to post or [tab]
guest
You may want to rate the tab now too:
select rating
Please do not post tabs as comments. Select "correction" instead!