Oops, an error
Loading. Please wait.

The Hellcat Spangled Shalalala Bass Tab

version 2
version 2

Whole song

Interactive

22,913 views 30 this week
no commentswrite comment
1 2 3 4 5
x 10
add to favorites
launch autoscroll
font size
0
reset
guitar tuner
Autoscroll
slow
fast
+/-
esc
set tempo
stop
Help us to improve Ultimate-Guitar.com Take our survey!
×
Author
Difficulty
intermediate
-------------------------------------------------------------------------------
                             THE HELLCAT SPANGLED SHALALALA - ARCTIC MONKEYS
-------------------------------------------------------------------------------

Tabbed By : rrr3da
e-mail: rrr3da@hotmail.com

Tuning: STANDARD

*** please visit facebook.com/FitzCataldo ***

Intro (0:08)
G|-----------------------------------------------------------------|
D|--------------4-6---6/8-4-6------------------4-6---88-4-6--------|
A|-2------2-4-6---------------4---2------2-4-6--------------4------|   X2
E|------4-----------------------2------4----------------------2----|


First Verse (0:23)
G|-----------------------------------------------------------------|
D|-----------------------------------------------------------------|
A|-2-----2-----2----------2-----2---------2-----2----------2-4-6---|   X4
E|-----4---4-2---4----2-4---4-2---------4---4-2---4----2-4---------|


Chorus (0:53)
G|--------------------------------|
D|-2---2----2---2-2--4--1-1-1-1-1-|
A|--------2---2-------------------|   X2
E|--------------------------------|

G|----------------------------------|
D|-2---2----2---2-2--4--1-1-1-1-----|
A|--------2---2-----------------4-4-|
E|----------------------------------|


Second Verse (1:08)
G|------------------------------------------------------------------|
D|------------------------------------------------------------------|
A|-2-----2-----2----------2-----2---------2-----2----------2-4-6----|
E|-----4---4-2---4----2-4---4-2---------4---4-2---4----2-4----------|

G|------------------------------------------------------------------|
D|----------------------------------------------4-6---8-4-6---------|
A|-2-----2-----2----------2-----2---------2-4-6-------------4-------|
E|-----4---4-2---4----2-4---4-2---------4---------------------2-----|

G|------------------------------------------------------------------|
D|------------------------------------------------------------------|
A|-2-----2-----2----------2-----2---------2-----2----------2-4-6----|   X2
E|-----4---4-2---4----2-4---4-2---------4---4-2---4----2-4----------|


Chorus (1:37)
G|--------------------------------|
D|-2---2----2---2-2--4--1-1-1-1-1-|
A|--------2---2-------------------|   X2
E|--------------------------------|

G|----------------------------------|
D|-2---2----2---2-2--4--1-1-1-1-----|
A|--------2---2-----------------4-4-|
E|----------------------------------|

Pre-outro (1:48)
G|-------------------------------------------------|
D|-------------------------------------------------|
A|-4-4---4---4-4-6-7-4---------------------2-------|
E|---------------------2---2-2---2-2-0-2-4---4-2-4-|


Outro (1:55)
"and in a.."
G|-------------------------------------|
D|-2--2-----2--2-----------------------|
A|--------2--------2---2--2---2-----2--|   X2
E|--------------------------4---4-2----|

"acting like a.."
G|---------------------------------------------------------------------|
D|------------------------------------------4/6-2---4---4-4------------|
A|-4--4-----4----2-4---4-4-2-4-2------------------4--------------------|
E|--------4----4-----------------4-0-2---2-------------------0-2-4-4-2-|

"well did you ever get the.."
G|--------------------------------------------------------------------------|
D|--------------------------------6-------------------------------4/6-------|
A|--------------------------2-4-6-----2-4---4---2-4--2----------------6-4-6-|
E|-4---4---2-4--4---4---2-4-----------------------------4---4-4-4-----------|

"steady hands.."
G|------------------------------------------------------------------|
D|------------------------------------------------------------------|
A|-7--7--7-7---7---2/8---8-8-8-8-8-8-\2-2-2------------7-6--2-4-6---|
E|------------------------------------------4-2-0--0/4--------------|

"what you waiting.."
G|------------------------------------|
D|------------------------------------|
A|-2---2---2-2------------7-6--2-4-6--|
E|-------------4-2-0--0/4-------------|

"sing another.."             "shalala.."
G|------------------------------------|
D|-2---2---1-2--4---------------------|
A|--------------------------------4-4-|
E|----------------4-2---2-2-0-2-4-----|

"..laaaa!"
G|------------------------------------|
D|------------------------------------|
A|-2---2---2-2------------7-6--2-4-6--|   X3
E|-------------4-2-0--0/4-------------|

End
G|---------------------|
D|---------------------|
A|-2---2---2-2---------|
E|-------------4-2-0~--|

*** please visit facebook.com/FitzCataldo ***

| /  slide up
| \  slide down
| h  hammer-on
| p  pull-off
| ~  vibrato
| +  harmonic
| x  Mute note
===============================================================================
Suggest correction
comments
print report bad tab
guest
You may want to rate the tab now too:
select rating
Wanna post a correction for this tab? Suggest correction