Oops, an error
Loading. Please wait.

The Hellcat Spangled Shalalala Bass Tab

version 3
version 3

Whole song

Interactive

1,988 views 1 this week
1 commentread comment
1 2 3 4 5
worth learning
x 3
add to favorites
launch autoscroll
font size
0
reset
guitar tuner
Tab Pro tools
  • play this tab
  • loop segment
  • change instrument
  • show fretboard
  • metronome
Autoscroll
slow
fast
+/-
esc
set tempo
stop
Contributor
Difficulty
intermediate
Artist: Arctic Monkeys

Allbum: Suck It And See

Song: The Hellcat Spangled Shalalala



Intro 

G||--------------------|
D||--------------------|
A||------------------2-|
E||--------------------|

G||--------------------|----------------------|
D||------------------4-|-6------6/8--4-6------|
A||---2-------2-4--6---|------------------4---|
E||--------4-----------|--------------------2-|

G||--------------------|----------------------|
D||------------------4-|-6------88--4-6-------|
A||-2---------2-4--6---|------------------4---|
E||--------4-----------|--------------------2-|

---

G||--------------------|----------------------|
D||------------------4-|-6------6/8--4-6------|
A||-2---------2-4--6---|------------------4---|
E||--------4-----------|--------------------2-|

G||--------------------|----------------------|
D||------------------4-|-6------88--4-6-------|
A||-2---------2-4--6---|------------------4---|
E||--------4-----------|--------------------2-|


Verse

G||--------------------|--------------------|
D||--------------------|--------------------|
A||-2--------2-------2-|-------------2------|
E||--------4----4-2----|-4------2--4----4-2-|

G||--------------------|--------------------||
D||--------------------|--------------------|| x4
A||-2--------2-------2-|-------------2--4-6-||
E||--------4----4-2----|-4------2--4--------||


Chorus

G||--------------------|--------------------||
D||--------------------|--------------------||  x3
A||-7----7----7----7-7-|---9----6--6-6--6-6-||
E||----------7--7------|--------------------||

G||--------------------|--------------------|
D||--------------------|--------------------|
A||-4------------------|--------------------|
E||--------------------|--------------------|


Verse 2

G||--------------------|--------------------|
D||--------------------|--------------------|
A||-2--------2-------2-|-------------2------|
E||--------4----4-2----|-4------2--4----4-2-|

G||--------------------|--------------------||
D||--------------------|--------------------|| x4
A||-2--------2-------2-|-------------2--4-6-||
E||--------4----4-2----|-4------2--4--------||


Chorus 2

G||--------------------|--------------------||
D||--------------------|--------------------||  x3
A||-7----7----7----7-7-|---9----6--6-6--6-6-||
E||----------7--7------|--------------------||

G||--------------------|-----------------------|
D||--------------------|-----------------------|
A||-4------------------|----------------4/(7)\-|
E||--------------------|-----------------------|

G||--------------------|--------------------|
D||--------------------|--------------------|
A||--------------------|-----------2------6-|
E||-2------------------|---0--2-4----4--2---|


Outro

G||--------------------|--------------------||
D||--------------------|--------------------||
A||-7----7----7-7----2-|---2--2----2--------||
E||----------7---------|----------4--4--2-4-||

G||--------------------|--------------------||
D||--------------------|--------------------||
A||-7----7----7-7----2-|---2--2----2--------||
E||----------7---------|----------4--4--2-4-||

G||--------------------|--------------------|
D||--------------------|--------------------|
A||-4----4----4----2-4-|---4--4--234-2------|
E||----------4--4------|----------------4-0-|

G||--------------------|--------------------|
D||--------------------|--------------------|
A||------------------9-|---9--9-------------|
E||-2----2/\-----------|-----------2----2---|

G||--------------------|--------------------|
D||--------------------|--------------------|
A||--------------------|--------2--4-6----2-|
E||-4----4---24-4----4-|---2--4---------4---|

G||--------------------|---------------------|
D||--------------------|---------------------|
A||-4----4---24-2------|---------------------|
E||------------------4-|---4--4-4--4-9--9-11-|

G||--------------------------|--------------------------||
D||--------------------------|--------------------------||
A||--------------------------|--------------------------||
E||-12----12----x12-12----13-|---13--13-13----13--13-13-||

G||--------------------|--------------------||
D||--------------------|--------------------||
A||--------------------|---2--7-6----2--4-6-||
E||-7----7----7-4--2-0-|--------------------||

G||--------------------|--------------------||
D||--------------------|--------------------||
A||--------------------|---2--7-6----2--4-6-||
E||-7----7----7-4--2-0-|--------------------||

G||--------------------|--------------------|
D||--------------------|--------------------|
A||-7----7---x7-9\-----|--------------------|
E||------------------2-|---2--2-0--2-7--9---|

---

G||--------------------|--------------------||
D||--------------------|--------------------|| x3
A||--------------------|---2--7-6----2--4-6-||
E||-7----7----7-4--2-0-|--------------------||

G||--------------------||
D||--------------------||
A||--------------------||
E||-7----7----7-4--2-0-||



tab by: Pedro Zappa
comments
We did not receive enough feedback on this tab! Please rate:
print report bad tab
1 2 3 4 5
1 comment total.
0 reply
JuffBass wrote on June 23 2014, 10:13 am, edited on June 24 2014, 08:56 am

Not the best tab for this song Pedro. I think the outro is very inaccurate.

I want to post or [tab]
guest
You may want to rate the tab now too:
select rating
Please do not post tabs as comments. Select "correction" instead!