Oops, an error
Loading. Please wait.

The Jewellers Hands Bass Tab

version 1
version 1

Whole song

Interactive

5,578 views 1 this week
no commentswrite comment
1 2 3 4 5
x 4
add to favorites
launch autoscroll
font size
0
reset
guitar tuner
Autoscroll
slow
fast
+/-
esc
set tempo
stop
Help us to improve Ultimate-Guitar.com Take our survey!
×
Author
Difficulty
novice
intro only so far.... will update as and when


Gtr I (E A D G) - 'Untitled'

  Q=110
 3/4       4/4
  Gtr I
  H.        Q  Q  Q  Q      Q   S E S Q   E  E
|---------|-------------||---------------------|
|---------|-------------||o--------------------|
|---------|-------------||o-----------------10-|
|---------|-4--1--6--7--||--8--11-8-8-8--11----|


  1.,2.,3.               4.
  e E  e  E e E e E.  4x e E  e  E e E e E.
|---------------------||---------------------|
|--------------------o||---------------------|
|-8-8----------------o||---------------------|
|-----10-10-8-8-7-----||-1-1-10-10-8-8-7-----|


   Fiendish wonder
                             1.,2.,3.               4.
        Q   S E S Q   E  E   e E  e  E e E e E.  4x e E  e  E e E e E.
||--||---------------------|---------------------||------------------------||
||o-||o--------------------|--------------------o||-----------------------o||
||o-||o-----------------10-|-8-8----------------o||-----------------------o||
||--||--8--11-8-8-8--11----|-----10-10-8-8-7-----||-1-1-10-10-8-8-7--------||
Suggest correction
comments
print report bad tab
guest
You may want to rate the tab now too:
select rating
Wanna post a correction for this tab? Suggest correction