Oops, an error
Loading. Please wait.

The Jewellers Hands Tab

version 1
version 1

Whole song

Interactive

12,298 views 9 this week
3 commentsread comments
1 2 3 4 5
x 5
add to favorites
launch autoscroll
font size
0
reset
how to read this tab
guitar tuner
Autoscroll
slow
fast
+/-
esc
set tempo
stop
Help us to improve Ultimate-Guitar.com Take our survey!
×
Author
Difficulty
intermediate
I've tabbed out the two guitar parts for Alex and Jamie throughout this song based on 
the studio
recording and their live performances.

NOTE: Tremolo Picking is indicated where necessary.
      Any reference to time is from the song recording.

If you have any issues with the rhythm and timing of certain things, you can check out 
my acoustic cover
for further guidelines: http://www.youtube.com/watch?v=ZR0dS5n_Uqk

Cheers guys and happy jamming.


INTRO

Jamie (Tremolo Picking)
|----------------|
|--13----15-13---|
|----------------|
|----------------|
|----------------|
|----------------|



VERSE 1

"You think excitement has receded..." '0:43'
Jamie (Picked normally)
|----------------|
|--13----15-13---|
|----------------|
|----------------|
|----------------|
|----------------|



CHORUS

Alex & Jamie
|--4-----3-----3-----3----|
|--4-----4-----3-----4----|
|--5-----5-----4-----5----| x 3
|-------------------------|
|-------------------------|
|-------------------------|

"The Procession..." '1:33'

|--4-----3-|
|--4-----3-|
|--5-----4-|
|----------|
|----------|
|----------|


"All drowned..." '1:38'
Alex
|------3--------8-10-8-------------|
|----4--------9--------8---9-------|
|--5-------10----------------7\5---|
|----------------------------------|
|----------------------------------|
|----------------------------------|

Jamie (Tremolo Picking, Carry on through first half of 2nd Verse)
|----------------|
|--13----15-13---|
|----------------| x6
|----------------|
|----------------|
|----------------|



VERSE 2

"Inevitables gather..." '2:08'
Jamie (Tremolo Picking)
|-------------------------|
|--13---15-13----8---9-6--|
|-------------------------|
|-------------------------|
|-------------------------|
|-------------------------|

|-----------------------22---20--|
|--13-----20--18--20-------------|
|--------------------------------|
|--------------------------------|
|--------------------------------|
|--------------------------------|



CHORUS 2

Alex & Jamie
|--4-----3-----3-----3----|
|--4-----4-----3-----4----|
|--5-----5-----4-----5----| x 3
|-------------------------|
|-------------------------|
|-------------------------|

"The Procession..." '2:57'

|--4-----3-----3-----3----|
|--4-----3-----3-----3----|
|--5-----4-----4-----4----|
|-------------------------|
|-------------------------|
|-------------------------|



OUTRO


Alex (First repetition alone)
|--------------------------------------------------------------|
|--------------------------------------------------------------|
|--------------------------------------------------------------| x 2
|--------------------------------------------------------------|
|--3----3/6----6/11----11/15----15\10----10\6------------------|
|-------------------------------------------------\11----8\3---|

Jamie (Comes in after Alex's first repetition)
|------------------------------------------------------------------|
|------------------------------------------------------------------|
|------------------------------------------------------------------|
|------------------------------------------------------------------|
|---1/3----3/6----6/11----11/15----15\10----10\6-------------------|
|----------------------------------------------------\11----8\3----|

(This part above is repeated at 4:02 and 4:41)




"If you've a lesson to teach me, I'm listening..." '3:32'
Jamie
|------8--8---------------4-----------3-------|
|----8------8-----------4---4-3-----4---4-6---|
|--8-----------8--7---5-----------5-----------| x6
|---------------------------------------------|
|---------------------------------------------|
|---------------------------------------------|




"If you've a lesson to teach me, don't deviate..." '4:33'

Jamie (Tremolo Picking, repeat to fade)
|-------------------------|
|--13---15-13----8---9-6--|
|-------------------------|
|-------------------------|
|-------------------------|
|-------------------------|

|-----------------------22---20--|
|--13-----20--18--20-------------|
|--------------------------------|
|--------------------------------|
|--------------------------------|
|--------------------------------|

If you have any further changes or comments, please feel free to send me a message on 
facebook or twitter.
http://www.facebook.com/mrkwd
http://www.twitter.com/mrkwd
Suggest correction
comments
print report bad tab
3 comments total.
0 reply
tennessee90 104 Jul 31, 2012 05:20 AM

awesome tab! the only thing is, and this is my problem, I just have 21 frets and not 22^^
5 stars

0 reply
Fireheads 54 Jan 16, 2014 05:37 AM

Bend the 21 up ;)

0 reply
tennessee90 104 Aug 01, 2012 06:24 AM

Theres a little correction.

When you repeat the chorus for the 2nd time you play...

"You thought you'd never get obsessed..."
|--4-----3-----3-----3----|
|--4-----3-----3-----4----|
|--5-----4-----4-----5----|
|-------------------------|
|-------------------------|

And when ypu play the Alex outro you slide from 11 to 14 and then from the 14 to the 10
I guess this was just a typo :)
|-------------------------|

guest
You may want to rate the tab now too:
select rating
Wanna post a correction for this tab? Suggest correction