Oops, an error
Loading. Please wait.

The Jewellers Hands Bass Tab

version 2
version 2

Whole song

Interactive

3,467 views 3 this week
no commentswrite comment
1 2 3 4 5
worth learning
x 3
add to favorites
launch autoscroll
font size
0
reset
guitar tuner
Tab Pro tools
  • play this tab
  • loop segment
  • change instrument
  • show fretboard
  • metronome
×
Best way to learn
"The Jewellers Hands"
Autoscroll
slow
fast
+/-
esc
set tempo
stop
Contributor
Difficulty
intermediate
00:02
G|---------------|
D|---------------|
A|---------------|
E|---4--1-/7--8--|

G|---------------------------------|  |-------------------------------|
D|---------------------------------|  |-------------------------------|
A|---6---------6---8-8-----------8-|x3|---6---------6-----------------|
E|8---8--6h8-8---8-----8-8-6-6-8---|  |8---8--6h8-8----1-1-8-8-6-6-6\-|

=====================

G|---------------------------------|  |-------------------------------|
D|---------------------------------|  |-------------------------------|
A|---6---------6---8-8-----------8-|x3|---6---------6-----------------|
E|8---8--6h8-8---8-----8-8-6-6-8---|  |8---8--6h8-8----1-1-8-8-6-6-6\-|

G|---------------------------------|  |-------------------------------|
D|---------------------------------|  |-------------------------------|
A|---6---------6---8-8-----------8-|x3|---6---------6-----------------|
E|8---8--6h8-8---8-----8-8-6-6-8---|  |8---8--6h8-8----1-1-8-8-6-6-6\-|

======================

G|-------------------------------------------|
D|-------------------------------5-3-1-----5-|
A|---6-4---3--3-5-6----------3-5-------3-6---|
E|4------7----------3--3-1-3-----------------|

G|------------------------------------|
D|------------------------------------|
A|---6-4---------------------3--3-5-6-|
E|4------7-3--3-1-3-3--3-1-3----------|

G|--------------------------------------------------|
D|--------------------------------------5-3-1-----5-|
A|--2-4---6-4---4-------------------3-5-------3-6---|
E|4-----4-----7---3--3-1-3-3--3-1-3-----------------|

G|---------------|
D|---------------|
A|---6-4---------|
E|4------7-3--3--|

=====Rest=====

G|--------|
D|--------|
A|6-----6-|
E|--8p6---|

G|---------------------------------|  |-------------------------------|
D|---------------------------------|  |-------------------------------|
A|---6---------6---8-8-----------8-|x3|---6---------6-----------------|
E|8---8--6h8-8---8-----8-8-6-6-8---|  |8---8--6h8-8----1-1-8-8-6-6-6\-|

======================

G|-------------------------------------------|
D|-------------------------------5-3-1-----5-|
A|---6-4---3--3-5-6----------3-5-------3-6---|
E|4------7----------3--3-1-3-----------------|

G|------------------------------------|
D|------------------------------------|
A|---6-4---------------------3--3-5-6-|
E|4------7-3--3-1-3-3--3-1-3----------|

G|--------------------------------------------------|
D|--------------------------------------5-3-1-----5-|
A|--2-4---6-4---4-------------------3-5-------3-6---|
E|4-----4-----7---3--3-1-3-3--3-1-3-----------------|

G|----------------------------|
D|----------------------------|
A|---6-4----------------------|
E|4------7-3--3--3--3--3--3---|

======================

G|--------|
D|--------|
A|6-----6-|
E|--8p6---|

======================

G|-----------------------------------------------------------------------------------|
D|-----------------------------------------------------------------------------------|
A|--------6-6-8p6h8--11-11-11-11-10-10-10-10-11-11-11-11-10-10-10-10-----------------|
E|8-8-8-8------------------------------------------------------------8-8-8-8-3-3-3-3-|

======================x12

This should be about 90% correct?
comments
We did not receive enough feedback on this tab! Please rate:
print report bad tab
1 2 3 4 5
I want to post or [tab]
guest
You may want to rate the tab now too:
select rating
Please do not post tabs as comments. Select "correction" instead!