Oops, an error
Loading. Please wait.

The Nettles Bass Tab

version 1
version 1

Whole song

Interactive

2,340 views 1 this week
no commentswrite comment
1 2 3 4 5
accurate
x 4
add to favorites
launch autoscroll
font size
0
reset
guitar tuner
Tab Pro tools
  • play this tab
  • loop segment
  • change instrument
  • show fretboard
  • metronome
×
Best way to learn
"The Nettles"
Autoscroll
slow
fast
+/-
esc
set tempo
stop
Contributor
Difficulty
novice
Arctic Monkeys' The Nettles bass line :)

Intro(start after two guitar repetitions)
G|---------------------|
D|---------------------|
A|---------------------|
E|-5-5-44-3-2----------| (2x)

Verse (Sank into his calculations...)
G|------------------------------------|
D|------------------------------------|
A|------------------------------------|
E|-5-5-5-5-44-3-2--5-5-44-2--5-5-44-2-|

Variation
G|--------------------------------------|
D|--------------------------------------|
A|--------------------------------------|
E|-5-5-5-5-44-3-2--5-5-44-3-2--5-5-44-2-|

Chorus (With a scowl in his pocket...)
G|-------------------------|
D|------------------44-22--|
A|---44-33----33-44--------|
E|-22------55--------------|

Bridge (Same as intro)
G|---------------------|
D|---------------------|
A|---------------------|
E|-5-5-44-3-2----------| (2x)

Verse 2 (without variation)
G|------------------------------------|
D|------------------------------------|
A|------------------------------------|
E|-5-5-5-5-44-3-2--5-5-44-2--5-5-44-2-| 2x

Interlude 1
G|--------------------------------|
D|-----4444-2-2-4-442-------------|
A|-------------------33333333-----|
E|-2222----------------------3333-| 6x

Interlude 2
G|---------------------|
D|---------------------|
A|---------------------|
E|-5-5-44-3-2----------| 8x

Ending
G|---------------------|
D|---------------------|
A|---------------------|
E|-5-5-44-3-2----------| 4x
comments
print report bad tab
I want to post or [tab]
guest
You may want to rate the tab now too:
select rating
Please do not post tabs as comments. Select "correction" instead!