Oops, an error
Loading. Please wait.

This House Is A Circus Bass Tab

version 1
version 1

Whole song

Interactive

21,047 views 24 this week
4 commentsread comments
1 2 3 4 5
x 9
add to favorites
launch autoscroll
font size
0
reset
guitar tuner
Autoscroll
slow
fast
+/-
esc
set tempo
stop
Help us to improve Ultimate-Guitar.com Take our survey!
×
Author
Difficulty
novice
Tabbed By : Clark J
e-mail: Jacobson.clark@gmail.com

Tuning:eadg
0:07
G|---------------------------------------------------------------------------|
D|---------------------------------------------------------------------------|
A|----5----------5-------------5---------------------------------------------|
E|5-7-------5-7----7/x----5-7------------------------------------------------|
0:12-0:37
G|---------------------------------------------------------------------------|
D|---------------------------------------------------------------------------|
A|-----------5-------------5-------------------------------------------------|
E|77-8---5-7-----8-7---5-7---------------------------------------------------|
0:37-1:39, 2:12-2:37
G|---------------------------------------------------------------------------|
D|-------------4-------------------------------------------------------------|
A|----------------------------5----------------------------------------------|
E|7-7-5h7-5h7-----8-8-5h8-5h8------------------------------------------------|
1:39-2:00
G|---------------------------------------------------------------------------|
D|---------------------------------------------------------------------------|
A|7--7-5—5/9--9-5-4--------------5-------------5-----(on the last 1)---------|
E|-------------------7-7-5h7-5h7---7-7-5h7-5h7--------7/x--------------------|
2:06-2:12(with distortion)
G|---------------------------------------------------------------------------|
D|---------------------------------------------------------------------------|
A|------------5----(on the last 1)-------------------------------------------|
E|7-7-5h7-5h7--------7-7-5h7-5-3-2-------------------------------------------|
2:37-3:02
G|---------------------------------------------------------------------------|
D|--------------4------------------------------------------------------------|
A|------------------------------5--------------------------------------------|
E|7-7-7-7-7-5h7---8-8-8-8-8-5h8----------------------------------------------|
End on
G|---------------------------------------------------------------------------|
D|---------------------------------------------------------------------------|
A|---------------------------------------------------------------------------|
E|7~~~~~~~~~~~~~~------------------------------------------------------------|
Suggest correction
comments
print report bad tab
4 comments total. Showing first comments.
+2 reply
Mon the Biffy 125 May 07, 2007 08:16 AM

cheers mate, great tab. distortion bit is an octave higher. Otherwise, its perfect.

0 reply
eddienolan89 75 Aug 05, 2007 07:01 PM

good good

+1 reply
Da Masta 31 Feb 08, 2008 10:35 AM

alrite mate good tab except i think instead of:
A:------------5
E:8-8-8-8-5h8--
it's:
A:------------5
E:8-8-8-8-5h7--
and same alteration for the outro. Apart from that spot on!

guest
You may want to rate the tab now too:
select rating
Wanna post a correction for this tab? Suggest correction