Oops, an error
Loading. Please wait.

This House Is A Circus Tab

version 1
version 1

Whole song

Interactive

28,872 views 9 this week
1 commentread comment
1 2 3 4 5
x 7
add to favorites
launch autoscroll
font size
0
reset
how to read this tab
guitar tuner
Autoscroll
slow
fast
+/-
esc
set tempo
stop
Help us to improve Ultimate-Guitar.com Take our survey!
×
Author
Arctic Monkeys
Favourite Worst Nightmare
Domino
This House Is A Circus

Intro and Verse I:

E--2--3--|--3--2--|
B--3--4--|--4--3--|
G--4--5--|--5--4--|
D--------|--------|
A--------|--------|
E--------|--------|

Repeat 17x

chorus I:

E-----------------------|
B-----------------------|
G-----------------------|
D----------------4------|
A--------------5--------|
E--7-7-5-7-5-7-------8--|

Repeat 8x

Interlude I:

E-----------------|-----------------|
B-----------------|-----------------|
G-----------------|-----------------|
D-----------------|-----------------|
A--------------5--|--------------5--|
E--7-7-5-7-5-7----|--8-8-5-8-5-8----|

Repeat 8x

at the fifth time guitar 2 starts playing this:

E----------------|      E----------------------------|
B--12-15--12-15--|      B--12-15-11-15--12-15-11-15--|
G----------------| 2x   G----------------------------| 2x
D----------------|      D----------------------------|
A----------------|      A----------------------------|
E----------------|      E----------------------------|

play this 4 times till

then one time:

E-----------------------|
B-----------------------|
D-----------------------|
G-----------------------|
A--7--7-5--5-9--9-------|
E-----------------10-9--|

verse II:

E-----------------|-----------------|-----------------------|
B-----------------|-----------------|-----------------------|
G-----------------|-----------------|-----------------------|
D-----------------|-----------------|-----------------------|
A--------------5--|--------------5--|--7--7-5--5-9--9-------|
E--7-7-5-7-5-7----|--7-7-5-7-5-7----|-----------------10-9--|

Repeat 3x

interlude II:

E--2--3--|--3--2--|
B--3--4--|--4--3--|
G--4--5--|--5--4--| 4x
D--------|--------|
A--------|--------|
E--------|--------|

at third time guitar 2 plays this:

E-----------------|
B-----------------|
G-----------------| 2x
D-----------------|
A--------------5--|
E--7-7-5-7-5-7----|

Verse III:

E--2--3--|--3--2--|
B--3--4--|--4--3--|
G--4--5--|--5--4--| 
D--------|--------|
A--------|--------|
E--------|--------|

repeat 10x

during that guitar 2 plays:

E-----------------------|
B-----------------------|
G-----------------------|
D----------------4------|
A--------------5--------|
E--7-7-5-7-5-7-------8--|

either 10 times

then another guitar comes in with:

E-------------------|-------------------|
B-------------------|-------------------|
G-------------------|-------------------|
D--------------4----|--------------4----|
A-------------------|-------------------|
E--7-7-7-7-7-7---7--|--8-8-8-8-8-8---8--|

all three riffs are played til the end of the song





Suggest correction
comments
print report bad tab
1 comment total.
0 reply
chhang 573 Apr 25, 2007 03:20 PM

good tab, some of it is right but most of it is wrong. it just doesnt sound right. the other two tabs are better

guest
You may want to rate the tab now too:
select rating
Wanna post a correction for this tab? Suggest correction