Oops, an error
Loading. Please wait.

This House Is A Circus Bass Tab

version 2
version 2

Whole song

Interactive

2,167 views 1 this week
no commentswrite comment
1 2 3 4 5
please rate
add to favorites
launch autoscroll
font size
0
reset
guitar tuner
Autoscroll
slow
fast
+/-
esc
set tempo
stop
Help us to improve Ultimate-Guitar.com Take our survey!
×
Author
Intro:
G|-------------------------|
D|-------------------------|
A|--5-7-----5h7-5-----5-7--|
E|7-------7---------7------|

Buildup/Verse:
G|-----------------------|
D|-----------------------|
A|--h5---5-7--5----h5-7--|  x8
E|77---7--------8-7------|

Verse:
G|--------------------------|
D|----------4---------------|
A|2-2-2h2-02---3-3-3h3-035--|x11
E|--------------------------|

G|----------------|
D|----------4-----|
A|2-2-2h2-02--3X--|
E|----------------|

G|--------------------------|
D|----------4---------------|
A|2-2-2h2-02---3-3-3h3-035--|x7
E|--------------------------|

G|---------------------------------|
D|---------------------------------|
A|5--5-7--7-3--3-4-2------------5--|x3
E|-------------------7--7-7h7-57---|

G|--------------------|
D|--------------------|
A|5--5-7--7-3--3-4-2--|
E|--------------------|

Bass Solo:
G|--------------------------------------|
D|--------------------------------------|
A|---------------19-----------------19--|
E|19-19-1919h1719----19-19-1919h1719----|

G|---------------------------------------|
D|---------------------------------------|
A|---------------19----------------------|
E|19-19-1919h1719---19-19-17\14\8\5\0----|

Verse:
G|--------------------------|
D|----------4---------------|
A|2-2-2h2-02---3-3-3h3-035--|x17
E|--------------------------|

Outro:
G|--------------------|
D|-----------------4--|
A|--------7-7777757---|  x8
E|77777757------------|

G|--------------------------|
D|--------------------------|
A|77774444------------------|
E|--------888877775~~~~~~~--|

Hope it worked as well for your bass as it did mine...
Suggest correction
What's this?
You can suggest a correction to this tab. Community and Mods will review your correction and vote to approve or reject it.
comments
We did not receive enough feedback on this tab! Please rate:
print report bad tab
1 2 3 4 5
guest
You may want to rate the tab now too:
select rating
Please do not post tabs as comments. Select "correction" instead!