Oops, an error
Loading. Please wait.

This House Is A Circus Bass Tab

version 3
version 3

Whole song

Interactive

926 views 3 this week
no commentswrite comment
1 2 3 4 5
please rate
add to favorites
launch autoscroll
font size
0
reset
guitar tuner
Tab Pro tools
  • play this tab
  • loop segment
  • change instrument
  • show fretboard
  • metronome
×
Best way to learn
"This House Is A Circus"
Autoscroll
slow
fast
+/-
esc
set tempo
stop
Contributor
-------------------------------------------------------------------------------
			     THIS HOUSE IS A CIRCUS - Arctic Monkeys
-------------------------------------------------------------------------------

Tabbed By : Kevin

Tuning: Standard

0:06
G|----------------------------------------|
D|----------------------------------------|
A|---------5-----------5-----------5------|
E|-----5-7---------5-7---7-----5-7--------|

0:12
G|------------------------------------------------------|
D|------------------------------------------------------|x4
A|-------------5------------5------------5------------5-|
E|-7-7--8--5-7----8--7--5-7---7-7-8--5-7----8--7--5-7---|

0:37
G|-------------------------------------------------------------|
D|--------------4-----------------------------4----------------|x5
A|-----------------------------5-----------------------------5-|
E|-7--7--77-5-7---8--8--88-5-8---7--7--77-5-7---8--8--88-5-8---|

1:08
G|-------------------------------------------------|
D|--------------4-----------------------------4-4\-|
A|-----------------------------5-------------------|
E|-7--7--77-5-7---8--8--88-5-8---7--7--77-5-7------|

1:13
G|-------------------------------------------------------------|
D|--------------4-----------------------------4----------------|x4
A|-----------------------------5-----------------------------5-|
E|-7--7--77-5-7---8--8--88-5-8---7--7--77-5-7---8--8--88-5-8---|

1:38
G|----------------------------------------------------|
D|-----------4--4-------------------------------------|x3
A|-7--7-5--5------5--4---------------5--------------5-|
E|----------------------7--7--77-5-7---7--7--77-5-7---|

1:57
G|-------------------------|
D|-----------4--4----------|
A|-7--7-5--5------5--4-----|
E|----------------------7\-|

2:06
G|--------------7--------------7--------------7----------------|
D|-9--9--99-7-9---9--9--99-7-9---9--9--99-7-9---9--9--99-7-----|
A|---------------------------------------------------------9-7-|
E|-------------------------------------------------------------|

2:12
G|-------------------------------------------------------------|
D|-------------------------------------------------------------|x4
A|--------------5--------------5--------------5--------------5-|
E|-7--7--77-5-7---7--7--77-5-7---7--7--77-5-7---7--7--77-5-7---|

2:37
G|-----------------------------------------------------------------|
D|---------------4-------------------------------4-----------------|x2
A|-------------------------------5-------------------------------5-|
E|-7-7-7-7-7-5-7---8-8-8-8-8-5-8---7-7-7-7-7-5-7---8-8-8-8-8-5-8---|

2:49
G|-----------------------------------------------------------------|
D|-----------------------------------------------------------------|x2
A|-----------------------------------------------------------------|
E|-7-7-7-7-7-7-7-7-8-8-8-8-8-8-8-8-7-7-7-7-7-7-7-7-8-8-8-8-8-8-8-8-|

G|---------|
D|---------|
A|---------|
E|-7~~~----|


| /  slide up
| \  slide down
| h  hammer-on
| p  pull-off
| ~  vibrato
| +  harmonic
| x  Mute note
===============================================================================
comments
We did not receive enough feedback on this tab! Please rate:
print report bad tab
1 2 3 4 5
I want to post or [tab]
guest
You may want to rate the tab now too:
select rating
Please do not post tabs as comments. Select "correction" instead!